  0
SECTION
  2
HEADER
  9
$ACADVER
  1
AC1015
  9
$ACADMAINTVER
 70
     6
  9
$DWGCODEPAGE
  3
ANSI_1254
  9
$INSBASE
 10
0.0
 20
0.0
 30
0.0
  9
$EXTMIN
 10
0.0
 20
0.0
 30
0.0
  9
$EXTMAX
 10
279.4
 20
215.9
 30
0.0
  9
$LIMMIN
 10
0.0
 20
0.0
  9
$LIMMAX
 10
279.4
 20
215.9
  9
$ORTHOMODE
 70
     0
  9
$REGENMODE
 70
     1
  9
$FILLMODE
 70
     1
  9
$QTEXTMODE
 70
     0
  9
$MIRRTEXT
 70
     1
  9
$LTSCALE
 40
1.0
  9
$ATTMODE
 70
     1
  9
$TEXTSIZE
 40
3.5
  9
$TRACEWID
 40
1.0
  9
$TEXTSTYLE
  7
Standard
  9
$CLAYER
  8
0
  9
$CELTYPE
  6
ByLayer
  9
$CECOLOR
 62
   256
  9
$CELTSCALE
 40
1.0
  9
$DISPSILH
 70
     0
  9
$DIMSCALE
 40
1.0
  9
$DIMASZ
 40
3.5
  9
$DIMEXO
 40
1.0
  9
$DIMDLI
 40
3.75
  9
$DIMRND
 40
0.0
  9
$DIMDLE
 40
0.0
  9
$DIMEXE
 40
1.0
  9
$DIMTP
 40
0.0
  9
$DIMTM
 40
0.0
  9
$DIMTXT
 40
3.5
  9
$DIMCEN
 40
2.5
  9
$DIMTSZ
 40
0.0
  9
$DIMTOL
 70
     0
  9
$DIMLIM
 70
     0
  9
$DIMTIH
 70
     1
  9
$DIMTOH
 70
     1
  9
$DIMSE1
 70
     0
  9
$DIMSE2
 70
     0
  9
$DIMTAD
 70
     1
  9
$DIMZIN
 70
     0
  9
$DIMBLK
  1

  9
$DIMASO
 70
     1
  9
$DIMSHO
 70
     1
  9
$DIMPOST
  1

  9
$DIMAPOST
  1

  9
$DIMALT
 70
     0
  9
$DIMALTD
 70
     3
  9
$DIMALTF
 40
0.0393700787
  9
$DIMLFAC
 40
1.0
  9
$DIMTOFL
 70
     1
  9
$DIMTVP
 40
0.0
  9
$DIMTIX
 70
     0
  9
$DIMSOXD
 70
     0
  9
$DIMSAH
 70
     0
  9
$DIMBLK1
  1

  9
$DIMBLK2
  1

  9
$DIMSTYLE
  2
ISO-25
  9
$DIMCLRD
 70
     0
  9
$DIMCLRE
 70
     0
  9
$DIMCLRT
 70
     0
  9
$DIMTFAC
 40
1.0
  9
$DIMGAP
 40
1.524
  9
$DIMJUST
 70
     0
  9
$DIMSD1
 70
     0
  9
$DIMSD2
 70
     0
  9
$DIMTOLJ
 70
     0
  9
$DIMTZIN
 70
     0
  9
$DIMALTZ
 70
     0
  9
$DIMALTTZ
 70
     0
  9
$DIMUPT
 70
     0
  9
$DIMDEC
 70
     2
  9
$DIMTDEC
 70
     2
  9
$DIMALTU
 70
     2
  9
$DIMALTTD
 70
     3
  9
$DIMTXSTY
  7
Standard
  9
$DIMAUNIT
 70
     0
  9
$DIMADEC
 70
     2
  9
$DIMALTRND
 40
0.0
  9
$DIMAZIN
 70
     0
  9
$DIMDSEP
 70
    44
  9
$DIMATFIT
 70
     3
  9
$DIMFRAC
 70
     0
  9
$DIMLDRBLK
  1

  9
$DIMLUNIT
 70
     2
  9
$DIMLWD
 70
    -2
  9
$DIMLWE
 70
    -2
  9
$DIMTMOVE
 70
     0
  9
$LUNITS
 70
     2
  9
$LUPREC
 70
     2
  9
$SKETCHINC
 40
1.0
  9
$FILLETRAD
 40
10.0
  9
$AUNITS
 70
     0
  9
$AUPREC
 70
     2
  9
$MENU
  1
.
  9
$ELEVATION
 40
0.0
  9
$PELEVATION
 40
0.0
  9
$THICKNESS
 40
0.0
  9
$LIMCHECK
 70
     0
  9
$CHAMFERA
 40
0.0
  9
$CHAMFERB
 40
0.0
  9
$CHAMFERC
 40
0.0
  9
$CHAMFERD
 40
0.0
  9
$SKPOLY
 70
     0
  9
$TDCREATE
 40
2458985.665959537
  9
$TDUCREATE
 40
2458985.540959537
  9
$TDUPDATE
 40
2458985.665959849
  9
$TDUUPDATE
 40
2458985.540959849
  9
$TDINDWG
 40
0.0000000116
  9
$TDUSRTIMER
 40
0.0000000116
  9
$USRTIMER
 70
     1
  9
$ANGBASE
 50
0.0
  9
$ANGDIR
 70
     0
  9
$PDMODE
 70
     0
  9
$PDSIZE
 40
-1.0
  9
$PLINEWID
 40
0.0
  9
$SPLFRAME
 70
     0
  9
$SPLINETYPE
 70
     6
  9
$SPLINESEGS
 70
     8
  9
$HANDSEED
  5
D2
  9
$SURFTAB1
 70
     6
  9
$SURFTAB2
 70
     6
  9
$SURFTYPE
 70
     6
  9
$SURFU
 70
     6
  9
$SURFV
 70
     6
  9
$UCSBASE
  2

  9
$UCSNAME
  2

  9
$UCSORG
 10
0.0
 20
0.0
 30
0.0
  9
$UCSXDIR
 10
1.0
 20
0.0
 30
0.0
  9
$UCSYDIR
 10
0.0
 20
1.0
 30
0.0
  9
$UCSORTHOREF
  2

  9
$UCSORTHOVIEW
 70
     0
  9
$UCSORGTOP
 10
0.0
 20
0.0
 30
0.0
  9
$UCSORGBOTTOM
 10
0.0
 20
0.0
 30
0.0
  9
$UCSORGLEFT
 10
0.0
 20
0.0
 30
0.0
  9
$UCSORGRIGHT
 10
0.0
 20
0.0
 30
0.0
  9
$UCSORGFRONT
 10
0.0
 20
0.0
 30
0.0
  9
$UCSORGBACK
 10
0.0
 20
0.0
 30
0.0
  9
$PUCSBASE
  2

  9
$PUCSNAME
  2

  9
$PUCSORG
 10
0.0
 20
0.0
 30
0.0
  9
$PUCSXDIR
 10
1.0
 20
0.0
 30
0.0
  9
$PUCSYDIR
 10
0.0
 20
1.0
 30
0.0
  9
$PUCSORTHOREF
  2

  9
$PUCSORTHOVIEW
 70
     0
  9
$PUCSORGTOP
 10
0.0
 20
0.0
 30
0.0
  9
$PUCSORGBOTTOM
 10
0.0
 20
0.0
 30
0.0
  9
$PUCSORGLEFT
 10
0.0
 20
0.0
 30
0.0
  9
$PUCSORGRIGHT
 10
0.0
 20
0.0
 30
0.0
  9
$PUCSORGFRONT
 10
0.0
 20
0.0
 30
0.0
  9
$PUCSORGBACK
 10
0.0
 20
0.0
 30
0.0
  9
$USERI1
 70
     0
  9
$USERI2
 70
     0
  9
$USERI3
 70
     0
  9
$USERI4
 70
     0
  9
$USERI5
 70
     0
  9
$USERR1
 40
0.0
  9
$USERR2
 40
0.0
  9
$USERR3
 40
0.0
  9
$USERR4
 40
0.0
  9
$USERR5
 40
0.0
  9
$WORLDVIEW
 70
     1
  9
$SHADEDGE
 70
     3
  9
$SHADEDIF
 70
    70
  9
$TILEMODE
 70
     1
  9
$MAXACTVP
 70
    64
  9
$PINSBASE
 10
0.0
 20
0.0
 30
0.0
  9
$PLIMCHECK
 70
     0
  9
$PEXTMIN
 10
1.0000000000E+20
 20
1.0000000000E+20
 30
1.0000000000E+20
  9
$PEXTMAX
 10
-1.0000000000E+20
 20
-1.0000000000E+20
 30
-1.0000000000E+20
  9
$PLIMMIN
 10
0.0
 20
0.0
  9
$PLIMMAX
 10
420.0
 20
297.0
  9
$UNITMODE
 70
     0
  9
$VISRETAIN
 70
     1
  9
$PLINEGEN
 70
     0
  9
$PSLTSCALE
 70
     1
  9
$TREEDEPTH
 70
  3020
  9
$CMLSTYLE
  2
Standard
  9
$CMLJUST
 70
     0
  9
$CMLSCALE
 40
20.0
  9
$PROXYGRAPHICS
 70
     1
  9
$MEASUREMENT
 70
     1
  9
$CELWEIGHT
370
    -1
  9
$ENDCAPS
280
     0
  9
$JOINSTYLE
280
     0
  9
$LWDISPLAY
290
     1
  9
$INSUNITS
 70
     4
  9
$HYPERLINKBASE
  1

  9
$STYLESHEET
  1

  9
$XEDIT
290
     1
  9
$CEPSNTYPE
380
     0
  9
$PSTYLEMODE
290
     1
  9
$FINGERPRINTGUID
  2
{9563821b-81c8-44a5-8f7c-38d4a308453d}
  9
$VERSIONGUID
  2
{FAEB1C32-E019-11D5-929B-00C0DF256EC4}
  9
$EXTNAMES
290
     1
  9
$PSVPSCALE
 40
0.0
  9
$OLESTARTUP
290
     0
  0
ENDSEC
  0
SECTION
  2
CLASSES
  0
CLASS
  1
ACDBDICTIONARYWDFLT
  2
AcDbDictionaryWithDefault
  3
ObjectDBX Classes
 90
        0
280
     0
281
     0
  0
CLASS
  1
VISUALSTYLE
  2
AcDbVisualStyle
  3
ObjectDBX Classes
 90
     4095
280
     0
281
     0
  0
CLASS
  1
MATERIAL
  2
AcDbMaterial
  3
ObjectDBX Classes
 90
     1153
280
     0
281
     0
  0
CLASS
  1
SCALE
  2
AcDbScale
  3
ObjectDBX Classes
 90
     1153
280
     0
281
     0
  0
CLASS
  1
TABLESTYLE
  2
AcDbTableStyle
  3
ObjectDBX Classes
 90
     4095
280
     0
281
     0
  0
CLASS
  1
MLEADERSTYLE
  2
AcDbMLeaderStyle
  3
ACDB_MLEADERSTYLE_CLASS
 90
     4095
280
     0
281
     0
  0
CLASS
  1
SUN
  2
AcDbSun
  3
SCENEOE
 90
     1153
280
     0
281
     0
  0
CLASS
  1
ACDBPLACEHOLDER
  2
AcDbPlaceHolder
  3
ObjectDBX Classes
 90
        0
280
     0
281
     0
  0
CLASS
  1
LAYOUT
  2
AcDbLayout
  3
ObjectDBX Classes
 90
        0
280
     0
281
     0
  0
ENDSEC
  0
SECTION
  2
TABLES
  0
TABLE
  2
VPORT
  5
8
330
0
100
AcDbSymbolTable
 70
     1
  0
VPORT
  5
29
330
8
100
AcDbSymbolTableRecord
100
AcDbViewportTableRecord
  2
*Active
 70
     0
 10
0.0
 20
0.0
 11
1.0
 21
1.0
 12
139.7
 22
107.95
 13
0.0
 23
0.0
 14
10.0
 24
10.0
 15
10.0
 25
10.0
 16
0.0
 26
0.0
 36
1.0
 17
0.0
 27
0.0
 37
0.0
 40
215.9
 41
1.2941176471
 42
50.0
 43
0.0
 44
0.0
 50
0.0
 51
0.0
 71
     0
 72
  2000
 73
     1
 74
     3
 75
     0
 76
     0
 77
     0
 78
     0
281
     0
 65
     1
110
0.0
120
0.0
130
0.0
111
1.0
121
0.0
131
0.0
112
0.0
122
1.0
132
0.0
 79
     0
146
0.0
  0
ENDTAB
  0
TABLE
  2
LTYPE
  5
5
330
0
100
AcDbSymbolTable
 70
     6
  0
LTYPE
  5
14
330
5
100
AcDbSymbolTableRecord
100
AcDbLinetypeTableRecord
  2
ByBlock
 70
     0
  3

 72
    65
 73
     0
 40
0.0
  0
LTYPE
  5
15
330
5
100
AcDbSymbolTableRecord
100
AcDbLinetypeTableRecord
  2
ByLayer
 70
     0
  3

 72
    65
 73
     0
 40
0.0
  0
LTYPE
  5
16
330
5
100
AcDbSymbolTableRecord
100
AcDbLinetypeTableRecord
  2
Continuous
 70
     0
  3
Solid line
 72
    65
 73
     0
 40
0.0
  0
LTYPE
  5
6E
330
5
100
AcDbSymbolTableRecord
100
AcDbLinetypeTableRecord
  2
HIDDEN
 70
     0
  3
Hidden __ __ __ __ __ __ __ __ __ __ __ __ __ __
 72
    65
 73
     2
 40
1.905
 49
1.27
 74
     0
 49
-0.635
 74
     0
  0
LTYPE
  5
6F
330
5
100
AcDbSymbolTableRecord
100
AcDbLinetypeTableRecord
  2
PHANTOM
 70
     0
  3
Phantom ______  __  __  ______  __  __  ______
 72
    65
 73
     6
 40
12.7
 49
6.35
 74
     0
 49
-1.27
 74
     0
 49
1.27
 74
     0
 49
-1.27
 74
     0
 49
1.27
 74
     0
 49
-1.27
 74
     0
  0
LTYPE
  5
70
330
5
100
AcDbSymbolTableRecord
100
AcDbLinetypeTableRecord
  2
CENTER
 70
     0
  3
Center ____ _ ____ _ ____ _ ____ _ ____ _ ____
 72
    65
 73
     4
 40
10.16
 49
6.35
 74
     0
 49
-1.27
 74
     0
 49
1.27
 74
     0
 49
-1.27
 74
     0
  0
LTYPE
  5
71
330
5
100
AcDbSymbolTableRecord
100
AcDbLinetypeTableRecord
  2
CENTERX2
 70
     0
  3
Center (2x) ________  __  ________  __  _____
 72
    65
 73
     4
 40
20.32
 49
12.7
 74
     0
 49
-2.54
 74
     0
 49
2.54
 74
     0
 49
-2.54
 74
     0
  0
LTYPE
  5
72
330
5
100
AcDbSymbolTableRecord
100
AcDbLinetypeTableRecord
  2
DOT2
 70
     0
  3
Dot (.5x) ........................................
 72
    65
 73
     2
 40
0.635
 49
0.0
 74
     0
 49
-0.635
 74
     0
  0
ENDTAB
  0
TABLE
  2
LAYER
  5
2
330
0
100
AcDbSymbolTable
 70
    17
  0
LAYER
  5
10
330
2
100
AcDbSymbolTableRecord
100
AcDbLayerTableRecord
  2
0
 70
     0
 62
     7
  6
Continuous
370
    -3
390
F
  0
LAYER
  5
73
330
2
100
AcDbSymbolTableRecord
100
AcDbLayerTableRecord
  2
FORMAT
 70
     0
 62
     7
  6
Continuous
370
    -3
390
F
  0
LAYER
  5
74
330
2
100
AcDbSymbolTableRecord
100
AcDbLayerTableRecord
  2
YARDIMCI_GEOMETRI
 70
     0
 62
    -6
  6
Continuous
290
     0
370
    -3
390
F
  0
LAYER
  5
75
330
2
100
AcDbSymbolTableRecord
100
AcDbLayerTableRecord
  2
SAYFA_CERCEVESI
 70
     0
 62
     7
  6
Continuous
370
    25
390
F
  0
LAYER
  5
76
330
2
100
AcDbSymbolTableRecord
100
AcDbLayerTableRecord
  2
ANTET
 70
     0
 62
     7
  6
Continuous
370
    -3
390
F
  0
LAYER
  5
77
330
2
100
AcDbSymbolTableRecord
100
AcDbLayerTableRecord
  2
OLCU
 70
     0
 62
   150
  6
Continuous
370
    -3
390
F
  0
LAYER
  5
78
330
2
100
AcDbSymbolTableRecord
100
AcDbLayerTableRecord
  2
METIN
 70
     0
 62
    96
  6
Continuous
370
    -3
390
F
  0
LAYER
  5
79
330
2
100
AcDbSymbolTableRecord
100
AcDbLayerTableRecord
  2
BALON
 70
     0
 62
     5
  6
Continuous
370
    -3
390
F
  0
LAYER
  5
7A
330
2
100
AcDbSymbolTableRecord
100
AcDbLayerTableRecord
  2
VURGU
 70
     0
 62
     7
  6
Continuous
370
    -3
390
F
  0
LAYER
  5
7B
330
2
100
AcDbSymbolTableRecord
100
AcDbLayerTableRecord
  2
SILIK
 70
     0
 62
     7
  6
Continuous
370
    -3
390
F
  0
LAYER
  5
7C
330
2
100
AcDbSymbolTableRecord
100
AcDbLayerTableRecord
  2
MODEL
 70
     0
 62
     7
  6
Continuous
370
    -3
390
F
  0
LAYER
  5
7D
330
2
100
AcDbSymbolTableRecord
100
AcDbLayerTableRecord
  2
DETAYLANDıRMA
 70
     0
 62
   190
  6
Continuous
370
    -3
390
F
  0
LAYER
  5
7E
330
2
100
AcDbSymbolTableRecord
100
AcDbLayerTableRecord
  2
TOLERANS
 70
     0
 62
   230
  6
Continuous
370
    -3
390
F
  0
LAYER
  5
7F
330
2
100
AcDbSymbolTableRecord
100
AcDbLayerTableRecord
  2
MERKEZ_CIZGILERI
 70
     0
 62
    30
  6
Continuous
370
    -3
390
F
  0
LAYER
  5
80
330
2
100
AcDbSymbolTableRecord
100
AcDbLayerTableRecord
  2
KESIT-DETAY_CIZGILERI
 70
     0
 62
     7
  6
Continuous
370
    -3
390
F
  0
LAYER
  5
81
330
2
100
AcDbSymbolTableRecord
100
AcDbLayerTableRecord
  2
\U+041E\U+0421\U+0415\U+0412\U+042B\U+0415
 70
     0
 62
     7
  6
Continuous
370
    -3
390
F
  0
LAYER
  5
82
330
2
100
AcDbSymbolTableRecord
100
AcDbLayerTableRecord
  2
\U+0412\U+041E\U+0414\U+042F\U+041D\U+042B\U+0415_\U+0417\U+041D\U+0410\U+041A\U+0418
 70
     0
 62
    11
  6
Continuous
370
    -3
390
F
  0
ENDTAB
  0
TABLE
  2
STYLE
  5
3
330
0
100
AcDbSymbolTable
 70
     1
  0
STYLE
  5
11
330
3
100
AcDbSymbolTableRecord
100
AcDbTextStyleTableRecord
  2
Standard
 70
     0
 40
0.0
 41
1.0
 50
0.0
 71
     0
 42
3.5
  3
txt
  4

  0
ENDTAB
  0
TABLE
  2
VIEW
  5
6
330
0
100
AcDbSymbolTable
 70
     0
  0
ENDTAB
  0
TABLE
  2
UCS
  5
7
330
0
100
AcDbSymbolTable
 70
     0
  0
ENDTAB
  0
TABLE
  2
APPID
  5
9
330
0
100
AcDbSymbolTable
 70
     1
  0
APPID
  5
12
330
9
100
AcDbSymbolTableRecord
100
AcDbRegAppTableRecord
  2
ACAD
 70
     0
  0
ENDTAB
  0
TABLE
  2
DIMSTYLE
  5
A
330
0
100
AcDbSymbolTable
 70
     1
100
AcDbDimStyleTable
  0
DIMSTYLE
105
27
330
A
100
AcDbSymbolTableRecord
100
AcDbDimStyleTableRecord
  2
ISO-25
 70
     0
 41
2.5
 42
0.625
 43
3.75
 44
1.25
 73
     0
 74
     0
 77
     1
 78
     8
140
2.5
141
2.5
143
0.0393700787
147
0.625
171
     3
172
     1
178
     0
271
     2
272
     2
274
     3
278
    44
283
     0
284
     8
340
11
  0
ENDTAB
  0
TABLE
  2
BLOCK_RECORD
  5
1
330
0
100
AcDbSymbolTable
 70
     3
  0
BLOCK_RECORD
  5
1F
330
1
100
AcDbSymbolTableRecord
100
AcDbBlockTableRecord
  2
*Model_Space
340
22
  0
BLOCK_RECORD
  5
1B
330
1
100
AcDbSymbolTableRecord
100
AcDbBlockTableRecord
  2
*Paper_Space
340
1E
  0
BLOCK_RECORD
  5
23
330
1
100
AcDbSymbolTableRecord
100
AcDbBlockTableRecord
  2
*Paper_Space0
340
26
  0
BLOCK_RECORD
  5
93
330
1
100
AcDbSymbolTableRecord
100
AcDbBlockTableRecord
  2
SW_CENTERMARKSYMBOL_0
340
0
102
{BLKREFS
331
9E
102
}
  0
BLOCK_RECORD
  5
A5
330
1
100
AcDbSymbolTableRecord
100
AcDbBlockTableRecord
  2
SW_CENTERMARKSYMBOL_1
340
0
102
{BLKREFS
331
B0
102
}
  0
ENDTAB
  0
ENDSEC
  0
SECTION
  2
BLOCKS
  0
BLOCK
  5
20
330
1F
100
AcDbEntity
  8
0
100
AcDbBlockBegin
  2
*Model_Space
 70
     0
 10
0.0
 20
0.0
 30
0.0
  3
*Model_Space
  1

  0
ENDBLK
  5
21
330
1F
100
AcDbEntity
  8
0
100
AcDbBlockEnd
  0
BLOCK
  5
1C
330
1B
100
AcDbEntity
 67
     1
  8
0
100
AcDbBlockBegin
  2
*Paper_Space
 70
     0
 10
0.0
 20
0.0
 30
0.0
  3
*Paper_Space
  1

  0
ENDBLK
  5
1D
330
1B
100
AcDbEntity
 67
     1
  8
0
100
AcDbBlockEnd
  0
BLOCK
  5
24
330
23
100
AcDbEntity
  8
0
100
AcDbBlockBegin
  2
*Paper_Space0
 70
     0
 10
0.0
 20
0.0
 30
0.0
  3
*Paper_Space0
  1

  0
ENDBLK
  5
25
330
23
100
AcDbEntity
  8
0
100
AcDbBlockEnd
  0
BLOCK
  5
94
330
93
100
AcDbEntity
  8
0
100
AcDbBlockBegin
  2
SW_CENTERMARKSYMBOL_0
 70
     0
 10
0.0
 20
0.0
 30
0.0
  3
SW_CENTERMARKSYMBOL_0
  1

  0
LINE
  5
96
330
93
100
AcDbEntity
  8
FORMAT
 62
     0
100
AcDbLine
 10
0.0
 20
0.0
 30
0.0
 11
0.0
 21
2.5
 31
0.0
  0
LINE
  5
97
330
93
100
AcDbEntity
  8
FORMAT
 62
     0
100
AcDbLine
 10
0.0
 20
0.0
 30
0.0
 11
-2.5
 21
0.0
 31
0.0
  0
LINE
  5
98
330
93
100
AcDbEntity
  8
FORMAT
 62
     0
100
AcDbLine
 10
0.0
 20
0.0
 30
0.0
 11
0.0
 21
-2.5
 31
0.0
  0
LINE
  5
99
330
93
100
AcDbEntity
  8
FORMAT
 62
     0
100
AcDbLine
 10
0.0
 20
0.0
 30
0.0
 11
2.5
 21
0.0
 31
0.0
  0
LINE
  5
9A
330
93
100
AcDbEntity
  8
FORMAT
 62
     0
100
AcDbLine
 10
0.0
 20
5.0
 30
0.0
 11
0.0
 21
82.5
 31
0.0
  0
LINE
  5
9B
330
93
100
AcDbEntity
  8
FORMAT
 62
     0
100
AcDbLine
 10
-5.0
 20
0.0
 30
0.0
 11
-82.5
 21
0.0
 31
0.0
  0
LINE
  5
9C
330
93
100
AcDbEntity
  8
FORMAT
 62
     0
100
AcDbLine
 10
0.0
 20
-5.0
 30
0.0
 11
0.0
 21
-82.5
 31
0.0
  0
LINE
  5
9D
330
93
100
AcDbEntity
  8
FORMAT
 62
     0
100
AcDbLine
 10
5.0
 20
0.0
 30
0.0
 11
82.5
 21
0.0
 31
0.0
  0
ENDBLK
  5
95
330
93
100
AcDbEntity
  8
0
100
AcDbBlockEnd
  0
BLOCK
  5
A6
330
A5
100
AcDbEntity
  8
0
100
AcDbBlockBegin
  2
SW_CENTERMARKSYMBOL_1
 70
     0
 10
0.0
 20
0.0
 30
0.0
  3
SW_CENTERMARKSYMBOL_1
  1

  0
LINE
  5
A8
330
A5
100
AcDbEntity
  8
FORMAT
 62
     0
100
AcDbLine
 10
0.0
 20
0.0
 30
0.0
 11
0.0
 21
2.5
 31
0.0
  0
LINE
  5
A9
330
A5
100
AcDbEntity
  8
FORMAT
 62
     0
100
AcDbLine
 10
0.0
 20
0.0
 30
0.0
 11
-2.5
 21
0.0
 31
0.0
  0
LINE
  5
AA
330
A5
100
AcDbEntity
  8
FORMAT
 62
     0
100
AcDbLine
 10
0.0
 20
0.0
 30
0.0
 11
0.0
 21
-2.5
 31
0.0
  0
LINE
  5
AB
330
A5
100
AcDbEntity
  8
FORMAT
 62
     0
100
AcDbLine
 10
0.0
 20
0.0
 30
0.0
 11
2.5
 21
0.0
 31
0.0
  0
LINE
  5
AC
330
A5
100
AcDbEntity
  8
FORMAT
 62
     0
100
AcDbLine
 10
0.0
 20
5.0
 30
0.0
 11
0.0
 21
82.5
 31
0.0
  0
LINE
  5
AD
330
A5
100
AcDbEntity
  8
FORMAT
 62
     0
100
AcDbLine
 10
-5.0
 20
0.0
 30
0.0
 11
-82.5
 21
0.0
 31
0.0
  0
LINE
  5
AE
330
A5
100
AcDbEntity
  8
FORMAT
 62
     0
100
AcDbLine
 10
0.0
 20
-5.0
 30
0.0
 11
0.0
 21
-82.5
 31
0.0
  0
LINE
  5
AF
330
A5
100
AcDbEntity
  8
FORMAT
 62
     0
100
AcDbLine
 10
5.0
 20
0.0
 30
0.0
 11
82.5
 21
0.0
 31
0.0
  0
ENDBLK
  5
A7
330
A5
100
AcDbEntity
  8
0
100
AcDbBlockEnd
  0
ENDSEC
  0
SECTION
  2
ENTITIES
  0
LINE
  5
83
330
1F
100
AcDbEntity
  8
0
  6
Continuous
 62
     7
370
    25
100
AcDbLine
 10
70.1394558246
 20
251.7098461439
 30
0.0
 11
70.1394558246
 21
-0.0201637696
 31
0.0
  0
LINE
  5
84
330
1F
100
AcDbEntity
  8
0
  6
Continuous
 62
     7
370
    25
100
AcDbLine
 10
230.1394522483
 20
-0.0201637696
 30
0.0
 11
230.1394522483
 21
251.7098461439
 31
0.0
  0
LINE
  5
85
330
1F
100
AcDbEntity
  8
0
  6
Continuous
 62
     7
370
    25
100
AcDbLine
 10
230.1394522483
 20
251.7098461439
 30
0.0
 11
230.1394522483
 21
355.9798573305
 31
0.0
  0
LINE
  5
86
330
1F
100
AcDbEntity
  8
0
  6
Continuous
 62
     7
370
    25
100
AcDbLine
 10
230.1394522483
 20
-175.0201607894
 30
0.0
 11
230.1394522483
 21
-0.0201637696
 31
0.0
  0
LINE
  5
87
330
1F
100
AcDbEntity
  8
0
  6
Continuous
 62
     7
370
    25
100
AcDbLine
 10
70.1394558246
 20
-0.0201637696
 30
0.0
 11
70.1394558246
 21
-175.0201607894
 31
0.0
  0
LINE
  5
88
330
1F
100
AcDbEntity
  8
0
  6
Continuous
 62
     7
370
    25
100
AcDbLine
 10
70.1394558246
 20
355.9798573305
 30
0.0
 11
70.1394558246
 21
251.7098461439
 31
0.0
  0
LWPOLYLINE
  5
89
330
1F
100
AcDbEntity
  8
0
  6
Continuous
 62
     7
370
    25
100
AcDbPolyline
 90
       86
 70
   128
 43
0.0
 10
150.1394540364
 20
297.9546462346
 10
145.3094987491
 20
297.8283439924
 10
140.5059231738
 20
297.4501823236
 10
135.7549626673
 20
296.8221877862
 10
131.0825638766
 20
295.9478174497
 10
126.5142496968
 20
294.8318396856
 10
122.0749665344
 20
293.4803341676
 10
117.7889623041
 20
291.9006918718
 10
113.6796430046
 20
290.1015256692
 10
109.7694590981
 20
288.0927001287
 10
106.0797602231
 20
285.8851527025
 10
102.630696475
 20
283.4909533311
 10
99.4411140973
 20
280.9231852342
 10
96.5284250969
 20
278.1958555032
 10
93.908543914
 20
275.3238951017
 10
91.5957756633
 20
272.3229204465
 10
89.6027528042
 20
269.2093824197
 10
87.9403569097
 20
266.000268345
 10
86.6176739628
 20
262.713101988
 10
85.6419235761
 20
259.365854149
 10
85.01843664
 20
255.9767936517
 10
84.7506180698
 20
252.564397936
 10
84.83993563
 20
249.147353058
 10
85.2858901317
 20
245.7443152715
 10
86.0860526855
 20
242.3738514234
 10
87.2360572512
 20
239.0543793489
 10
88.7296155388
 20
235.80401886
 10
90.5585728878
 20
232.6405321409
 10
92.7129417951
 20
229.5811747362
 10
95.1809503431
 20
226.6427253534
 10
97.9491278822
 20
223.8411580373
 10
101.0023497338
 20
221.1917911817
 10
104.3239377732
 20
218.7091087152
 10
107.8957572872
 20
216.4066706945
 10
111.6982989306
 20
214.2970238973
 10
115.7107904846
 20
212.3917316247
 10
119.9113197917
 20
210.7011948873
 10
124.2769446517
 20
209.2346226026
 10
128.7838213439
 20
208.0000315954
 10
133.4073368753
 20
207.0041571905
 10
138.1222356404
 20
206.2524830152
 10
142.9027684326
 20
205.7490621854
 10
147.7228260892
 20
205.4966663171
 10
152.5560819837
 20
205.4966663171
 10
157.3761396403
 20
205.7490621854
 10
162.1566724325
 20
206.2524830152
 10
166.8715711976
 20
207.0041571905
 10
171.495086729
 20
208.0000315954
 10
176.0019634212
 20
209.2346226026
 10
180.3675882811
 20
210.7011948873
 10
184.5681175882
 20
212.3917316247
 10
188.5806091423
 20
214.2970238973
 10
192.3831507856
 20
216.4066706945
 10
195.9549702997
 20
218.7091087152
 10
199.2765583391
 20
221.1917911817
 10
202.3297801907
 20
223.8411580373
 10
205.0979577298
 20
226.6427253534
 10
207.5659662778
 20
229.5811747362
 10
209.720335185
 20
232.6405321409
 10
211.5492925341
 20
235.80401886
 10
213.0428508217
 20
239.0543793489
 10
214.1928553874
 20
242.3738514234
 10
214.9930179412
 20
245.7443152715
 10
215.4389724428
 20
249.147353058
 10
215.528290003
 20
252.564397936
 10
215.2604714329
 20
255.9767936517
 10
214.6369844968
 20
259.365854149
 10
213.6612341101
 20
262.713101988
 10
212.3385511631
 20
266.000268345
 10
210.6761552686
 20
269.2093824197
 10
208.6831324095
 20
272.3229204465
 10
206.3703641588
 20
275.3238951017
 10
203.7504829759
 20
278.1958555032
 10
200.8377939755
 20
280.9231852342
 10
197.6482115979
 20
283.4909533311
 10
194.1991478498
 20
285.8851527025
 10
190.5094489748
 20
288.0927001287
 10
186.5992650682
 20
290.1015256692
 10
182.4899457688
 20
291.9006918718
 10
178.2039415384
 20
293.4803341676
 10
173.764658376
 20
294.8318396856
 10
169.1963441963
 20
295.9478174497
 10
164.5239454056
 20
296.8221877862
 10
159.7729848991
 20
297.4501823236
 10
154.9694093237
 20
297.8283439924
 10
150.1394540364
 20
297.9546462346
  0
LWPOLYLINE
  5
8A
330
1F
100
AcDbEntity
  8
0
  6
Continuous
 62
     7
370
    25
100
AcDbPolyline
 90
       95
 70
   128
 43
0.0
 10
150.1394540364
 20
308.2784091283
 10
144.7960433843
 20
308.1520770837
 10
139.4764978731
 20
307.7736769964
 10
134.2045750762
 20
307.144847994
 10
129.0038220877
 20
306.2684809019
 10
123.8974660928
 20
305.1484202196
 10
118.9083114559
 20
303.7896727373
 10
114.0586428637
 20
302.198347931
 10
109.3701228792
 20
300.3815089513
 10
104.8636876339
 20
298.3473216344
 10
100.5594611461
 20
296.104816084
 10
96.4766770894
 20
293.6640356828
 10
92.6335595841
 20
291.0358880807
 10
89.0472784931
 20
288.2320855905
 10
85.7338488395
 20
285.2651749898
 10
82.7080712015
 20
282.1483885099
 10
79.9834609324
 20
278.8956736375
 10
77.5721773798
 20
275.5215143014
 10
75.4850015337
 20
272.0410202791
 10
73.7312540705
 20
268.4697185804
 10
72.3187580997
 20
264.8235832502
 10
71.2538317139
 20
261.1188565542
 10
70.5412283833
 20
257.3721085836
 10
70.1841295058
 20
253.6000882436
 10
70.1841295058
 20
249.8196040441
 10
70.5412283833
 20
246.0475837041
 10
71.2538317139
 20
242.3008357335
 10
72.3187580997
 20
238.5961388399
 10
73.7312540705
 20
234.9499737073
 10
75.4850015337
 20
231.3786720086
 10
77.5721773798
 20
227.8981779863
 10
79.9834609324
 20
224.5240484525
 10
82.7080712015
 20
221.2713335802
 10
85.7338488395
 20
218.1545471002
 10
89.0472784931
 20
215.1876364995
 10
92.6335595841
 20
212.3838340093
 10
96.4766770894
 20
209.7556864072
 10
100.5594611461
 20
207.314906006
 10
104.8636876339
 20
205.0724004556
 10
109.3701228792
 20
203.0381833364
 10
114.0586428637
 20
201.221374159
 10
118.9083114559
 20
199.6300195505
 10
123.8974660928
 20
198.2713018705
 10
129.0038220877
 20
197.1512411882
 10
134.2045750762
 20
196.2748442937
 10
139.4764978731
 20
195.6460450937
 10
144.7960433843
 20
195.2676450063
 10
150.1394540364
 20
195.1413129617
 10
155.4828646886
 20
195.2676450063
 10
160.8024101997
 20
195.6460450937
 10
166.0743329967
 20
196.2748442937
 10
171.2750859851
 20
197.1512411882
 10
176.3814419801
 20
198.2713018705
 10
181.3705966169
 20
199.6300195505
 10
186.2202652092
 20
201.221374159
 10
190.9087851936
 20
203.0381833364
 10
195.4152204389
 20
205.0724004556
 10
199.7194469268
 20
207.314906006
 10
203.8022309834
 20
209.7556864072
 10
207.6453484888
 20
212.3838340093
 10
211.2316295797
 20
215.1876364995
 10
214.5450592334
 20
218.1545471002
 10
217.5708368713
 20
221.2713335802
 10
220.2954471404
 20
224.5240484525
 10
222.7067306931
 20
227.8981779863
 10
224.7939065392
 20
231.3786720086
 10
226.5476540024
 20
234.9499737073
 10
227.9601499731
 20
238.5961388399
 10
229.025076359
 20
242.3008357335
 10
229.7376796896
 20
246.0475837041
 10
230.094778567
 20
249.8196040441
 10
230.094778567
 20
253.6000882436
 10
229.7376796896
 20
257.3721085836
 10
229.025076359
 20
261.1188565542
 10
227.9601499731
 20
264.8235832502
 10
226.5476540024
 20
268.4697185804
 10
224.7939065392
 20
272.0410202791
 10
222.7067306931
 20
275.5215143014
 10
220.2954471404
 20
278.8956736375
 10
217.5708368713
 20
282.1483885099
 10
214.5450592334
 20
285.2651749898
 10
211.2316295797
 20
288.2320855905
 10
207.6453484888
 20
291.0358880807
 10
203.8022309834
 20
293.6640356828
 10
199.7194469268
 20
296.104816084
 10
195.4152204389
 20
298.3473216344
 10
190.9087851936
 20
300.3815089513
 10
186.2202652092
 20
302.198347931
 10
181.3705966169
 20
303.7896727373
 10
176.3814419801
 20
305.1484202196
 10
171.2750859851
 20
306.2684809019
 10
166.0743329967
 20
307.144847994
 10
160.8024101997
 20
307.7736769964
 10
155.4828646886
 20
308.1520770837
 10
150.1394540364
 20
308.2784091283
  0
ELLIPSE
  5
8B
330
1F
100
AcDbEntity
  8
0
  6
Continuous
 62
     7
370
    25
100
AcDbEllipse
 10
150.1394540364
 20
-0.0201607894
 30
0.0
 11
80.0
 21
0.0
 31
0.0
210
0.0
220
0.0
230
1.0
 40
0.4142135624
 41
3.141592653589792
 42
6.283185307179586
  0
LINE
  5
8C
330
1F
100
AcDbEntity
  8
0
  6
Continuous
 62
     7
370
    25
100
AcDbLine
 10
70.1394558246
 20
-175.0201607894
 30
0.0
 11
230.1394522483
 21
-175.0201607894
 31
0.0
  0
LINE
  5
8D
330
1F
100
AcDbEntity
  8
0
  6
Continuous
 62
     7
370
    25
100
AcDbLine
 10
70.1394558246
 20
355.9798573305
 30
0.0
 11
230.1394522483
 21
355.9798573305
 31
0.0
  0
LINE
  5
8E
330
1F
100
AcDbEntity
  8
0
  6
Continuous
 62
     7
370
    25
100
AcDbLine
 10
70.1394558246
 20
-397.0777212691
 30
0.0
 11
70.1394558246
 21
-648.8077460837
 31
0.0
  0
LINE
  5
8F
330
1F
100
AcDbEntity
  8
0
  6
Continuous
 62
     7
370
    25
100
AcDbLine
 10
230.1394522483
 20
-648.8077460837
 30
0.0
 11
230.1394522483
 21
-397.0777212691
 31
0.0
  0
CIRCLE
  5
90
330
1F
100
AcDbEntity
  8
0
  6
Continuous
 62
     7
370
    25
100
AcDbCircle
 10
150.1394540364
 20
-648.8077460837
 30
0.0
 40
65.4
  0
CIRCLE
  5
91
330
1F
100
AcDbEntity
  8
0
  6
Continuous
 62
     7
370
    25
100
AcDbCircle
 10
150.1394540364
 20
-648.8077460837
 30
0.0
 40
80.0
  0
LWPOLYLINE
  5
92
330
1F
100
AcDbEntity
  8
0
  6
Continuous
 62
     7
370
    25
100
AcDbPolyline
 90
       49
 70
   128
 43
0.0
 10
70.1394558246
 20
-397.0777212691
 10
70.1841295058
 20
-395.1875089717
 10
70.5412283833
 20
-391.4154588294
 10
71.2538317139
 20
-387.6687108588
 10
72.3187580997
 20
-383.9640139651
 10
73.7312540705
 20
-380.3178488326
 10
75.4850015337
 20
-376.7465471339
 10
77.5721773798
 20
-373.2660531116
 10
79.9834609324
 20
-369.8919235778
 10
82.7080712015
 20
-366.6392087054
 10
85.7338488395
 20
-363.5224222255
 10
89.0472784931
 20
-360.5555116248
 10
92.6335595841
 20
-357.7517091346
 10
96.4766770894
 20
-355.1235615325
 10
100.5594611461
 20
-352.6827811313
 10
104.8636876339
 20
-350.4402755809
 10
109.3701228792
 20
-348.4060584617
 10
114.0586428637
 20
-346.5892492843
 10
118.9083114559
 20
-344.9979244781
 10
123.8974660928
 20
-343.6391769958
 10
129.0038220877
 20
-342.5191163135
 10
134.2045750762
 20
-341.642719419
 10
139.4764978731
 20
-341.0139202189
 10
144.7960433843
 20
-340.6355201316
 10
150.1394540364
 20
-340.509188087
 10
155.4828646886
 20
-340.6355201316
 10
160.8024101997
 20
-341.0139202189
 10
166.0743329967
 20
-341.642719419
 10
171.2750859851
 20
-342.5191163135
 10
176.3814419801
 20
-343.6391769958
 10
181.3705966169
 20
-344.9979244781
 10
186.2202652092
 20
-346.5892492843
 10
190.9087851936
 20
-348.4060584617
 10
195.4152204389
 20
-350.4402755809
 10
199.7194469268
 20
-352.6827811313
 10
203.8022309834
 20
-355.1235615325
 10
207.6453484888
 20
-357.7517091346
 10
211.2316295797
 20
-360.5555116248
 10
214.5450592334
 20
-363.5224222255
 10
217.5708368713
 20
-366.6392087054
 10
220.2954471404
 20
-369.8919235778
 10
222.7067306931
 20
-373.2660531116
 10
224.7939065392
 20
-376.7465471339
 10
226.5476540024
 20
-380.3178488326
 10
227.9601499731
 20
-383.9640139651
 10
229.025076359
 20
-387.6687108588
 10
229.7376796896
 20
-391.4154588294
 10
230.094778567
 20
-395.1875089717
 10
230.1394522483
 20
-397.0777212691
  0
INSERT
  5
9E
330
1F
100
AcDbEntity
  8
FORMAT
100
AcDbBlockReference
  2
SW_CENTERMARKSYMBOL_0
 10
150.1394540364
 20
-648.8077460837
 30
0.0
  0
LINE
  5
9F
330
1F
100
AcDbEntity
  8
0
  6
Continuous
 62
     7
370
    25
100
AcDbLine
 10
230.1394522483
 20
478.4831520745
 30
0.0
 11
230.1394522483
 21
730.2131768891
 31
0.0
  0
LINE
  5
A0
330
1F
100
AcDbEntity
  8
0
  6
Continuous
 62
     7
370
    25
100
AcDbLine
 10
70.1394558246
 20
730.2131768891
 30
0.0
 11
70.1394558246
 21
478.4831520745
 31
0.0
  0
CIRCLE
  5
A1
330
1F
100
AcDbEntity
  8
0
  6
Continuous
 62
     7
370
    25
100
AcDbCircle
 10
150.1394540364
 20
730.2131768891
 30
0.0
 40
65.4
  0
CIRCLE
  5
A2
330
1F
100
AcDbEntity
  8
0
  6
Continuous
 62
     7
370
    25
100
AcDbCircle
 10
150.1394540364
 20
730.2131768891
 30
0.0
 40
80.0
  0
LWPOLYLINE
  5
A3
330
1F
100
AcDbEntity
  8
0
  6
Continuous
 62
     7
370
    25
100
AcDbPolyline
 90
       95
 70
   128
 43
0.0
 10
150.1394540364
 20
535.0517001578
 10
144.7960433843
 20
534.9253830143
 10
139.4764978731
 20
534.5469680258
 10
134.2045750762
 20
533.9181688258
 10
129.0038220877
 20
533.0417719313
 10
123.8974660928
 20
531.921711249
 10
118.9083114559
 20
530.5629786679
 10
114.0586428637
 20
528.9716538617
 10
109.3701228792
 20
527.1548297831
 10
104.8636876339
 20
525.1206275651
 10
100.5594611461
 20
522.8781220147
 10
96.4766770894
 20
520.4373416134
 10
92.6335595841
 20
517.8091791102
 10
89.0472784931
 20
515.0053915211
 10
85.7338488395
 20
512.0384809205
 10
82.7080712015
 20
508.9216944405
 10
79.9834609324
 20
505.6689795682
 10
77.5721773798
 20
502.2948351332
 10
75.4850015337
 20
498.8143411109
 10
73.7312540705
 20
495.2430394122
 10
72.3187580997
 20
491.5968891808
 10
71.2538317139
 20
487.892177386
 10
70.5412283833
 20
484.1454294154
 10
70.1841295058
 20
480.3733941742
 10
70.1841295058
 20
476.592939777
 10
70.5412283833
 20
472.8208896348
 10
71.2538317139
 20
469.0741416642
 10
72.3187580997
 20
465.3694447705
 10
73.7312540705
 20
461.723279638
 10
75.4850015337
 20
458.1519779393
 10
77.5721773798
 20
454.6714839169
 10
79.9834609324
 20
451.2973543831
 10
82.7080712015
 20
448.0446395108
 10
85.7338488395
 20
444.9278530308
 10
89.0472784931
 20
441.9609424302
 10
92.6335595841
 20
439.1571399399
 10
96.4766770894
 20
436.5289923379
 10
100.5594611461
 20
434.0882119366
 10
104.8636876339
 20
431.8457063862
 10
109.3701228792
 20
429.811489267
 10
114.0586428637
 20
427.9946800896
 10
118.9083114559
 20
426.4033552834
 10
123.8974660928
 20
425.0446078011
 10
129.0038220877
 20
423.9245471188
 10
134.2045750762
 20
423.0481502244
 10
139.4764978731
 20
422.4193510243
 10
144.7960433843
 20
422.0409509369
 10
150.1394540364
 20
421.9146188923
 10
155.4828646886
 20
422.0409509369
 10
160.8024101997
 20
422.4193510243
 10
166.0743329967
 20
423.0481502244
 10
171.2750859851
 20
423.9245471188
 10
176.3814419801
 20
425.0446078011
 10
181.3705966169
 20
426.4033552834
 10
186.2202652092
 20
427.9946800896
 10
190.9087851936
 20
429.811489267
 10
195.4152204389
 20
431.8457063862
 10
199.7194469268
 20
434.0882119366
 10
203.8022309834
 20
436.5289923379
 10
207.6453484888
 20
439.1571399399
 10
211.2316295797
 20
441.9609424302
 10
214.5450592334
 20
444.9278530308
 10
217.5708368713
 20
448.0446395108
 10
220.2954471404
 20
451.2973543831
 10
222.7067306931
 20
454.6714839169
 10
224.7939065392
 20
458.1519779393
 10
226.5476540024
 20
461.723279638
 10
227.9601499731
 20
465.3694447705
 10
229.025076359
 20
469.0741416642
 10
229.7376796896
 20
472.8208896348
 10
230.094778567
 20
476.592939777
 10
230.094778567
 20
480.3733941742
 10
229.7376796896
 20
484.1454294154
 10
229.025076359
 20
487.892177386
 10
227.9601499731
 20
491.5968891808
 10
226.5476540024
 20
495.2430394122
 10
224.7939065392
 20
498.8143411109
 10
222.7067306931
 20
502.2948351332
 10
220.2954471404
 20
505.6689795682
 10
217.5708368713
 20
508.9216944405
 10
214.5450592334
 20
512.0384809205
 10
211.2316295797
 20
515.0053915211
 10
207.6453484888
 20
517.8091791102
 10
203.8022309834
 20
520.4373416134
 10
199.7194469268
 20
522.8781220147
 10
195.4152204389
 20
525.1206275651
 10
190.9087851936
 20
527.1548297831
 10
186.2202652092
 20
528.9716538617
 10
181.3705966169
 20
530.5629786679
 10
176.3814419801
 20
531.921711249
 10
171.2750859851
 20
533.0417719313
 10
166.0743329967
 20
533.9181688258
 10
160.8024101997
 20
534.5469680258
 10
155.4828646886
 20
534.9253830143
 10
150.1394540364
 20
535.0517001578
  0
LWPOLYLINE
  5
A4
330
1F
100
AcDbEntity
  8
0
  6
Continuous
 62
     7
370
    25
100
AcDbPolyline
 90
       86
 70
   128
 43
0.0
 10
150.1394540364
 20
524.7279521653
 10
145.3094987491
 20
524.6016648242
 10
140.5059231738
 20
524.2234882542
 10
135.7549626673
 20
523.595508618
 10
131.0825638766
 20
522.7211233803
 10
126.5142496968
 20
521.6051456162
 10
122.0749665344
 20
520.2536400982
 10
117.7889623041
 20
518.6739978024
 10
113.6796430046
 20
516.874846501
 10
109.7694590981
 20
514.8660060593
 10
106.0797602231
 20
512.6584735343
 10
102.630696475
 20
510.2642741629
 10
99.4411140973
 20
507.696506066
 10
96.5284250969
 20
504.969176335
 10
93.908543914
 20
502.0971861311
 10
91.5957756633
 20
499.0962412783
 10
89.6027528042
 20
495.9827032515
 10
87.9403569097
 20
492.7735891768
 10
86.6176739628
 20
489.4864228198
 10
85.6419235761
 20
486.1391600796
 10
85.01843664
 20
482.7500995823
 10
84.7506180698
 20
479.3377038666
 10
84.83993563
 20
475.9206589886
 10
85.2858901317
 20
472.5176212021
 10
86.0860526855
 20
469.147157354
 10
87.2360572512
 20
465.8276852795
 10
88.7296155388
 20
462.5773247906
 10
90.5585728878
 20
459.4138380715
 10
92.7129417951
 20
456.3545104691
 10
95.1809503431
 20
453.416031284
 10
97.9491278822
 20
450.6144639679
 10
101.0023497338
 20
447.9650971123
 10
104.3239377732
 20
445.4824146458
 10
107.8957572872
 20
443.1799766251
 10
111.6982989306
 20
441.0703596303
 10
115.7107904846
 20
439.1650673577
 10
119.9113197917
 20
437.4745008179
 10
124.2769446517
 20
436.0079285332
 10
128.7838213439
 20
434.773337526
 10
133.4073368753
 20
433.7774929234
 10
138.1222356404
 20
433.0257889458
 10
142.9027684326
 20
432.522368116
 10
147.7228260892
 20
432.2699722477
 10
152.5560819837
 20
432.2699722477
 10
157.3761396403
 20
432.522368116
 10
162.1566724325
 20
433.0257889458
 10
166.8715711976
 20
433.7774929234
 10
171.495086729
 20
434.773337526
 10
176.0019634212
 20
436.0079285332
 10
180.3675882811
 20
437.4745008179
 10
184.5681175882
 20
439.1650673577
 10
188.5806091423
 20
441.0703596303
 10
192.3831507856
 20
443.1799766251
 10
195.9549702997
 20
445.4824146458
 10
199.2765583391
 20
447.9650971123
 10
202.3297801907
 20
450.6144639679
 10
205.0979577298
 20
453.416031284
 10
207.5659662778
 20
456.3545104691
 10
209.720335185
 20
459.4138380715
 10
211.5492925341
 20
462.5773247906
 10
213.0428508217
 20
465.8276852795
 10
214.1928553874
 20
469.147157354
 10
214.9930179412
 20
472.5176212021
 10
215.4389724428
 20
475.9206589886
 10
215.528290003
 20
479.3377038666
 10
215.2604714329
 20
482.7500995823
 10
214.6369844968
 20
486.1391600796
 10
213.6612341101
 20
489.4864228198
 10
212.3385511631
 20
492.7735891768
 10
210.6761552686
 20
495.9827032515
 10
208.6831324095
 20
499.0962412783
 10
206.3703641588
 20
502.0971861311
 10
203.7504829759
 20
504.969176335
 10
200.8377939755
 20
507.696506066
 10
197.6482115979
 20
510.2642741629
 10
194.1991478498
 20
512.6584735343
 10
190.5094489748
 20
514.8660060593
 10
186.5992650682
 20
516.874846501
 10
182.4899457688
 20
518.6739978024
 10
178.2039415384
 20
520.2536400982
 10
173.764658376
 20
521.6051456162
 10
169.1963441963
 20
522.7211233803
 10
164.5239454056
 20
523.595508618
 10
159.7729848991
 20
524.2234882542
 10
154.9694093237
 20
524.6016648242
 10
150.1394540364
 20
524.7279521653
  0
INSERT
  5
B0
330
1F
100
AcDbEntity
  8
FORMAT
100
AcDbBlockReference
  2
SW_CENTERMARKSYMBOL_1
 10
150.1394540364
 20
730.2131768891
 30
0.0
  0
LINE
  5
B1
330
1F
100
AcDbEntity
  8
0
  6
Continuous
 62
     7
370
    25
100
AcDbLine
 10
777.4633624067
 20
308.2784091283
 30
0.0
 11
662.3018838872
 21
193.1169306089
 31
0.0
  0
LINE
  5
B2
330
1F
100
AcDbEntity
  8
0
  6
Continuous
 62
     7
370
    25
100
AcDbLine
 10
662.3018838872
 20
-33.1572468232
 30
0.0
 11
890.6004436721
 21
195.1413129617
 31
0.0
  0
LINE
  5
B3
330
1F
100
AcDbEntity
  8
0
  6
Continuous
 62
     7
370
    25
100
AcDbLine
 10
662.3018838872
 20
193.1169306089
 30
0.0
 11
662.3018838872
 21
355.9798573305
 31
0.0
  0
LINE
  5
B4
330
1F
100
AcDbEntity
  8
0
  6
Continuous
 62
     7
370
    25
100
AcDbLine
 10
662.3018838872
 20
-175.0201607894
 30
0.0
 11
662.3018838872
 21
-33.1572468232
 31
0.0
  0
LINE
  5
B5
330
1F
100
AcDbEntity
  8
0
  6
Continuous
 62
     7
370
    25
100
AcDbLine
 10
502.3018874635
 20
355.9798573305
 30
0.0
 11
502.3018874635
 21
-175.0201607894
 31
0.0
  0
LWPOLYLINE
  5
B6
330
1F
100
AcDbEntity
  8
0
  6
Continuous
 62
     7
370
    25
100
AcDbPolyline
 90
       26
 70
   128
 43
0.0
 10
662.3018838872
 20
-33.1572468232
 10
662.2607864846
 20
-33.1402147959
 10
661.9322158803
 20
-33.0041224907
 10
661.2764306773
 20
-32.7324892233
 10
660.2961205353
 20
-32.3264325808
 10
658.9953162183
 20
-31.7876214932
 10
657.3793597926
 20
-31.1182613324
 10
655.4548971762
 20
-30.3211237143
 10
653.229833435
 20
-29.3994719933
 10
650.7133104314
 20
-28.3571059655
 10
647.9156695713
 20
-27.1982724618
 10
644.8484071006
 20
-25.927769656
 10
641.5241256763
 20
-24.5508129548
 10
637.9564896633
 20
-23.073049898
 10
634.1601580788
 20
-21.5005601595
 10
630.1507287134
 20
-19.8397959422
 10
625.9446785261
 20
-18.0975968789
 10
621.5592891385
 20
-16.281115527
 10
617.0125835051
 20
-14.3978024672
 10
612.3232458194
 20
-12.4554212044
 10
607.5105432828
 20
-10.4619289588
 10
602.5942515989
 20
-8.42553627
 10
597.5945758109
 20
-6.3546026896
 10
592.5320590322
 20
-4.2576367806
 10
587.4275032838
 20
-2.1432663153
 10
582.3018856754
 20
-0.0201637696
  0
LWPOLYLINE
  5
B7
330
1F
100
AcDbEntity
  8
0
  6
Continuous
 62
     7
370
    25
100
AcDbPolyline
 90
       39
 70
   128
 43
0.0
 10
582.3018856754
 20
-0.0201637696
 10
585.6078836077
 20
7.9612259914
 10
588.9082335343
 20
15.9289662887
 10
592.1972960641
 20
23.8694672634
 10
595.4694532265
 20
31.7691539575
 10
598.7191133608
 20
39.6145259191
 10
601.9407239218
 20
47.3921870042
 10
605.1287845184
 20
55.0888453771
 10
608.2778431882
 20
62.6913433124
 10
611.3825224747
 20
70.1867018987
 10
614.4375212897
 20
77.5621210386
 10
617.4376130511
 20
84.8049794485
 10
620.3776754846
 20
91.9029389669
 10
623.2526906242
 20
98.8438402463
 10
626.0577373614
 20
105.6158219625
 10
628.7880324234
 20
112.2073208143
 10
631.4389042963
 20
118.6071013261
 10
634.0058230271
 20
124.8041962434
 10
636.4844113995
 20
130.7880257417
 10
638.8704263081
 20
136.5483676244
 10
641.1597997357
 20
142.0754169275
 10
643.348612677
 20
147.35966671
 10
645.4331286658
 20
152.3921464731
 10
647.4097825994
 20
157.1642135431
 10
649.2752068152
 20
161.667731886
 10
651.0262050141
 20
165.8950125028
 10
652.6597820629
 20
169.8388432313
 10
654.1731663455
 20
173.4924589445
 10
655.5637501587
 20
176.8496309568
 10
656.8291716685
 20
179.9046372224
 10
657.9672627558
 20
182.6522325326
 10
658.9760862698
 20
185.0877379228
 10
659.8539062251
 20
187.2069810678
 10
660.5992325057
 20
189.0063558866
 10
661.2107910623
 20
190.48279274
 10
661.6875313629
 20
191.6337286283
 10
662.028648745
 20
192.4572562028
 10
662.233547162
 20
192.9519449521
 10
662.3018838872
 20
193.1169306089
  0
LWPOLYLINE
  5
B8
330
1F
100
AcDbEntity
  8
0
  6
Continuous
 62
     7
370
    25
100
AcDbPolyline
 90
       48
 70
   128
 43
0.0
 10
777.4633624067
 20
308.2784091283
 10
777.5896795501
 20
308.1520770837
 10
777.9680945386
 20
307.7736769964
 10
778.5968937387
 20
307.144847994
 10
779.4732906331
 20
306.2684809019
 10
780.5933513154
 20
305.1484202196
 10
781.9520838966
 20
303.7896727373
 10
783.5434087028
 20
302.198347931
 10
785.3602327813
 20
300.3815089513
 10
787.3944349994
 20
298.3473216344
 10
789.6369405498
 20
296.104816084
 10
792.077720951
 20
293.6640356828
 10
794.7058834542
 20
291.0358880807
 10
797.5096710433
 20
288.2320855905
 10
800.476581644
 20
285.2651749898
 10
803.5933681239
 20
282.1483885099
 10
806.8460829963
 20
278.8956736375
 10
810.2202274312
 20
275.5215143014
 10
813.7007214536
 20
272.0410202791
 10
817.2720231523
 20
268.4697185804
 10
820.9181733836
 20
264.8235832502
 10
824.6228851785
 20
261.1188565542
 10
828.3696331491
 20
257.3721085836
 10
832.1416683902
 20
253.6000882436
 10
835.9221227874
 20
249.8196040441
 10
839.6941729297
 20
246.0475837041
 10
843.4409209003
 20
242.3008357335
 10
847.145617794
 20
238.5961388399
 10
850.7917829265
 20
234.9499737073
 10
854.3630846252
 20
231.3786720086
 10
857.8435786475
 20
227.8981779863
 10
861.2177081813
 20
224.5240484525
 10
864.4704230537
 20
221.2713335802
 10
867.5872095336
 20
218.1545471002
 10
870.5541201343
 20
215.1876364995
 10
873.3579226245
 20
212.3838340093
 10
875.9860702266
 20
209.7556864072
 10
878.4268506278
 20
207.314906006
 10
880.6693561782
 20
205.0724004556
 10
882.7035732974
 20
203.0381833364
 10
884.5203824748
 20
201.221374159
 10
886.111707281
 20
199.6300195505
 10
887.4704547633
 20
198.2713018705
 10
888.5905154456
 20
197.1512411882
 10
889.4669123401
 20
196.2748442937
 10
890.0957115401
 20
195.6460450937
 10
890.4741116275
 20
195.2676450063
 10
890.6004436721
 20
195.1413129617
  0
LINE
  5
B9
330
1F
100
AcDbEntity
  8
0
  6
Continuous
 62
     7
370
    25
100
AcDbLine
 10
582.3018856754
 20
-175.0201607894
 30
0.0
 11
662.3018838872
 21
-175.0201607894
 31
0.0
  0
LINE
  5
BA
330
1F
100
AcDbEntity
  8
0
  6
Continuous
 62
     7
370
    25
100
AcDbLine
 10
502.3018874635
 20
-175.0201607894
 30
0.0
 11
582.3018856754
 21
-175.0201607894
 31
0.0
  0
LINE
  5
BB
330
1F
100
AcDbEntity
  8
0
  6
Continuous
 62
     7
370
    25
100
AcDbLine
 10
582.3018856754
 20
355.9798573305
 30
0.0
 11
662.3018838872
 21
355.9798573305
 31
0.0
  0
LINE
  5
BC
330
1F
100
AcDbEntity
  8
0
  6
Continuous
 62
     7
370
    25
100
AcDbLine
 10
502.3018874635
 20
355.9798573305
 30
0.0
 11
582.3018856754
 21
355.9798573305
 31
0.0
  0
LINE
  5
BD
330
1F
100
AcDbEntity
  8
0
  6
Continuous
 62
     7
370
    25
100
AcDbLine
 10
-164.1850975026
 20
-175.0201607894
 30
0.0
 11
-164.1850975026
 21
355.9798573305
 31
0.0
  0
LINE
  5
BE
330
1F
100
AcDbEntity
  8
0
  6
Continuous
 62
     7
370
    25
100
AcDbLine
 10
-324.1850939264
 20
-33.1572468232
 30
0.0
 11
-324.1850939264
 21
-175.0201607894
 31
0.0
  0
LINE
  5
BF
330
1F
100
AcDbEntity
  8
0
  6
Continuous
 62
     7
370
    25
100
AcDbLine
 10
-324.1850939264
 20
355.9798573305
 30
0.0
 11
-324.1850939264
 21
193.1169306089
 31
0.0
  0
LINE
  5
C0
330
1F
100
AcDbEntity
  8
0
  6
Continuous
 62
     7
370
    25
100
AcDbLine
 10
-552.4836537113
 20
195.1413129617
 30
0.0
 11
-324.1850939264
 21
-33.1572468232
 31
0.0
  0
LINE
  5
C1
330
1F
100
AcDbEntity
  8
0
  6
Continuous
 62
     7
370
    25
100
AcDbLine
 10
-324.1850939264
 20
193.1169306089
 30
0.0
 11
-439.3465724458
 21
308.2784091283
 31
0.0
  0
LINE
  5
C2
330
1F
100
AcDbEntity
  8
0
  6
Continuous
 62
     7
370
    25
100
AcDbLine
 10
-324.1850939264
 20
-175.0201607894
 30
0.0
 11
-164.1850975026
 21
-175.0201607894
 31
0.0
  0
LINE
  5
C3
330
1F
100
AcDbEntity
  8
0
  6
Continuous
 62
     7
370
    25
100
AcDbLine
 10
-324.1850939264
 20
355.9798573305
 30
0.0
 11
-164.1850975026
 21
355.9798573305
 31
0.0
  0
LWPOLYLINE
  5
C4
330
1F
100
AcDbEntity
  8
0
  6
Continuous
 62
     7
370
    25
100
AcDbPolyline
 90
       39
 70
   128
 43
0.0
 10
-324.1850939264
 20
193.1169306089
 10
-324.1167572011
 20
192.9519449521
 10
-323.9118587841
 20
192.4572562028
 10
-323.5707414021
 20
191.6337286283
 10
-323.0940011014
 20
190.48279274
 10
-322.4824425449
 20
189.0063558866
 10
-321.7371162643
 20
187.2069810678
 10
-320.8592963089
 20
185.0877379228
 10
-319.8504727949
 20
182.6522325326
 10
-318.7123817076
 20
179.9046372224
 10
-317.4469601979
 20
176.8496309568
 10
-316.0563763847
 20
173.4924589445
 10
-314.5429921021
 20
169.8388432313
 10
-312.9094150533
 20
165.8950125028
 10
-311.1584168543
 20
161.667731886
 10
-309.2929926385
 20
157.1642135431
 10
-307.316338705
 20
152.3921464731
 10
-305.2318227162
 20
147.35966671
 10
-303.0430097749
 20
142.0754169275
 10
-300.7536363472
 20
136.5483676244
 10
-298.3676214387
 20
130.7880257417
 10
-295.8890330662
 20
124.8041962434
 10
-293.3221143355
 20
118.6071013261
 10
-290.6712424626
 20
112.2073208143
 10
-287.9409474005
 20
105.6158219625
 10
-285.1359006633
 20
98.8438402463
 10
-282.2608855237
 20
91.9029389669
 10
-279.3208230902
 20
84.8049794485
 10
-276.3207313289
 20
77.5621210386
 10
-273.2657325138
 20
70.1867018987
 10
-270.1610532274
 20
62.6913433124
 10
-267.0119945576
 20
55.0888453771
 10
-263.823933961
 20
47.3921870042
 10
-260.6023234
 20
39.6145259191
 10
-257.3526632656
 20
31.7691539575
 10
-254.0805061032
 20
23.8694672634
 10
-250.7914435734
 20
15.9289662887
 10
-247.4910936468
 20
7.9612259914
 10
-244.1850957145
 20
-0.0201637696
  0
LWPOLYLINE
  5
C5
330
1F
100
AcDbEntity
  8
0
  6
Continuous
 62
     7
370
    25
100
AcDbPolyline
 90
       26
 70
   128
 43
0.0
 10
-244.1850957145
 20
-0.0201637696
 10
-249.3107133229
 20
-2.1432663153
 10
-254.4152690713
 20
-4.2576367806
 10
-259.47778585
 20
-6.3546026896
 10
-264.477461638
 20
-8.42553627
 10
-269.3937533219
 20
-10.4619289588
 10
-274.2064558585
 20
-12.4554212044
 10
-278.8957935442
 20
-14.3978024672
 10
-283.4424991776
 20
-16.281115527
 10
-287.8278885652
 20
-18.0975968789
 10
-292.0339387526
 20
-19.8397959422
 10
-296.043368118
 20
-21.5005601595
 10
-299.8396997024
 20
-23.073049898
 10
-303.4073357155
 20
-24.5508129548
 10
-306.7316171397
 20
-25.927769656
 10
-309.7988796105
 20
-27.1982724618
 10
-312.5965204706
 20
-28.3571059655
 10
-315.1130434741
 20
-29.3994719933
 10
-317.3381072153
 20
-30.3211237143
 10
-319.2625698318
 20
-31.1182613324
 10
-320.8785262574
 20
-31.7876214932
 10
-322.1793305744
 20
-32.3264325808
 10
-323.1596407165
 20
-32.7324892233
 10
-323.8154259195
 20
-33.0041224907
 10
-324.1439965238
 20
-33.1402147959
 10
-324.1850939264
 20
-33.1572468232
  0
LWPOLYLINE
  5
C6
330
1F
100
AcDbEntity
  8
0
  6
Continuous
 62
     7
370
    25
100
AcDbPolyline
 90
       48
 70
   128
 43
0.0
 10
-552.4836537113
 20
195.1413129617
 10
-552.3573216667
 20
195.2676450063
 10
-551.9789215793
 20
195.6460450937
 10
-551.3501223792
 20
196.2748442937
 10
-550.4737254848
 20
197.1512411882
 10
-549.3536648025
 20
198.2713018705
 10
-547.9949173202
 20
199.6300195505
 10
-546.403592514
 20
201.221374159
 10
-544.5867833366
 20
203.0381833364
 10
-542.5525662174
 20
205.0724004556
 10
-540.310060667
 20
207.314906006
 10
-537.8692802657
 20
209.7556864072
 10
-535.2411326637
 20
212.3838340093
 10
-532.4373301734
 20
215.1876364995
 10
-529.4704195728
 20
218.1545471002
 10
-526.3536330928
 20
221.2713335802
 10
-523.1009182205
 20
224.5240484525
 10
-519.7267886867
 20
227.8981779863
 10
-516.2462946643
 20
231.3786720086
 10
-512.6749929656
 20
234.9499737073
 10
-509.0288278331
 20
238.5961388399
 10
-505.3241309394
 20
242.3008357335
 10
-501.5773829688
 20
246.0475837041
 10
-497.8053328265
 20
249.8196040441
 10
-494.0248784293
 20
253.6000882436
 10
-490.2528431882
 20
257.3721085836
 10
-486.5060952176
 20
261.1188565542
 10
-482.8013834228
 20
264.8235832502
 10
-479.1552331914
 20
268.4697185804
 10
-475.5839314927
 20
272.0410202791
 10
-472.1034374704
 20
275.5215143014
 10
-468.7292930354
 20
278.8956736375
 10
-465.4765781631
 20
282.1483885099
 10
-462.3597916831
 20
285.2651749898
 10
-459.3928810825
 20
288.2320855905
 10
-456.5890934934
 20
291.0358880807
 10
-453.9609309902
 20
293.6640356828
 10
-451.5201505889
 20
296.104816084
 10
-449.2776450385
 20
298.3473216344
 10
-447.2434428205
 20
300.3815089513
 10
-445.4266187419
 20
302.198347931
 10
-443.8352939357
 20
303.7896727373
 10
-442.4765613546
 20
305.1484202196
 10
-441.3565006723
 20
306.2684809019
 10
-440.4801037778
 20
307.144847994
 10
-439.8513045778
 20
307.7736769964
 10
-439.4728895892
 20
308.1520770837
 10
-439.3465724458
 20
308.2784091283
  0
LINE
  5
C7
330
1F
100
AcDbEntity
  8
0
  6
Continuous
 62
     7
370
    25
100
AcDbLine
 10
406.2203924011
 20
-335.2324325023
 30
0.0
 11
573.5024221551
 21
-624.9734215884
 31
0.0
  0
LINE
  5
C8
330
1F
100
AcDbEntity
  8
0
  6
Continuous
 62
     7
370
    25
100
AcDbLine
 10
667.0275618455
 20
-466.9637164415
 30
0.0
 11
544.7844578345
 21
-255.2324317898
 31
0.0
  0
LINE
  5
C9
330
1F
100
AcDbEntity
  8
0
  6
Continuous
 62
     7
370
    25
100
AcDbLine
 10
733.5024195222
 20
-746.432121672
 30
0.0
 11
733.5024195222
 21
-312.8489357651
 31
0.0
  0
LINE
  5
CA
330
1F
100
AcDbEntity
  8
0
  6
Continuous
 62
     7
370
    25
100
AcDbLine
 10
573.5024247893
 20
-622.6702173371
 30
0.0
 11
573.5024247893
 21
-746.432121672
 31
0.0
  0
ELLIPSE
  5
CB
330
1F
100
AcDbEntity
  8
0
  6
Continuous
 62
     7
370
    25
100
AcDbEllipse
 10
653.5024221557
 20
-603.537479592
 30
0.0
 11
79.71158082497402
 21
21.35865376374693
 31
0.0
210
0.0
220
0.0
230
1.0
 40
0.3177652438
 41
0.7004580896382471
 42
3.05665257983059
  0
ELLIPSE
  5
CC
330
1F
100
AcDbEntity
  8
0
  6
Continuous
 62
     7
370
    25
100
AcDbEllipse
 10
653.5024221557
 20
-603.537479592
 30
0.0
 11
-51.56543887304292
 21
192.4448372996487
 31
0.0
210
0.0
220
0.0
230
1.0
 40
0.3178248929
 41
4.797329054143883
 42
5.412847070022957
  0
LWPOLYLINE
  5
CD
330
1F
100
AcDbEntity
  8
0
  6
Continuous
 62
     7
370
    25
100
AcDbPolyline
 90
       95
 70
   128
 43
0.0
 10
515.5024185326
 20
-272.1334086488
 10
511.6347369171
 20
-274.3662026494
 10
507.6056704089
 20
-276.6921712841
 10
503.4332298709
 20
-279.1009777126
 10
499.1360359784
 20
-281.5817869063
 10
494.7332945234
 20
-284.1235840798
 10
490.2446604254
 20
-286.71500986
 10
485.6901903158
 20
-289.3444606582
 10
481.0902174149
 20
-292.0002217499
 10
476.4652883112
 20
-294.6703942621
 10
471.8360496924
 20
-297.3430944137
 10
467.2231930267
 20
-300.0063637761
 10
462.6473070497
 20
-302.6483031125
 10
458.1288461538
 20
-305.2571392954
 10
453.6879749718
 20
-307.8211933689
 10
449.3445262302
 20
-310.3290265533
 10
445.1179190893
 20
-312.769426555
 10
441.0270037272
 20
-315.1315216413
 10
437.0900666078
 20
-317.4047289254
 10
433.3246882353
 20
-319.5789095032
 10
429.7476852022
 20
-321.6443410772
 10
426.3750417008
 20
-323.5918305107
 10
423.221804156
 20
-325.4126529923
 10
420.3020654203
 20
-327.0986706688
 10
417.6288804801
 20
-328.6423934883
 10
415.2141452833
 20
-330.0368666618
 10
413.0686810333
 20
-331.2759140038
 10
411.2020814064
 20
-332.3539706452
 10
409.6226387952
 20
-333.266247303
 10
408.3374338701
 20
-334.0086542257
 10
407.3522091393
 20
-334.5778742182
 10
406.6713742168
 20
-334.9713596001
 10
406.2979478707
 20
-335.1873656766
 10
406.2335949014
 20
-335.2249294528
 10
406.4786208735
 20
-335.0838726791
 10
407.0319167982
 20
-334.7648338054
 10
407.8910302558
 20
-334.2692269185
 10
409.0521021753
 20
-333.5992782582
 10
410.5099590311
 20
-332.75797299
 10
412.2580812326
 20
-331.7490734646
 10
414.2886874179
 20
-330.5770705564
 10
416.5926844044
 20
-329.2472369111
 10
419.1597699218
 20
-327.7654459571
 10
421.9785063692
 20
-326.1383726745
 10
425.0362878876
 20
-324.3732692757
 10
428.3194720688
 20
-322.478010833
 10
431.8133895048
 20
-320.4610654439
 10
435.5024211662
 20
-318.3314495606
 10
439.3701133184
 20
-316.0986616427
 10
443.3991692899
 20
-313.7726869253
 10
447.5716098279
 20
-311.3639048316
 10
451.8688037204
 20
-308.8830713031
 10
456.2715451754
 20
-306.3412741295
 10
460.7601898102
 20
-303.7498787669
 10
465.3146599198
 20
-301.1204036339
 10
469.914622284
 20
-298.4646607942
 10
474.5395619243
 20
-295.79447003
 10
479.1688005432
 20
-293.1217698784
 10
483.7816572088
 20
-290.458500516
 10
488.3575326491
 20
-287.8165550969
 10
492.8760040818
 20
-285.2077249967
 10
497.3168752637
 20
-282.6436709231
 10
501.6603240054
 20
-280.1358377388
 10
505.8869311462
 20
-277.6954377371
 10
509.9778359716
 20
-275.3333609029
 10
513.914773091
 20
-273.0601536188
 10
517.6801514636
 20
-270.885973041
 10
521.2571650334
 20
-268.8205232148
 10
524.6297979981
 20
-266.8730520334
 10
527.7830355428
 20
-265.0522295519
 10
530.7027848152
 20
-263.3662179581
 10
533.3759697554
 20
-261.8224951386
 10
535.7906944155
 20
-260.4280158824
 10
537.9361586656
 20
-259.1889685404
 10
539.8027688291
 20
-258.1108936468
 10
541.3822009036
 20
-257.1986352412
 10
542.6674058287
 20
-256.4562283185
 10
543.6526305595
 20
-255.887008326
 10
544.3334760187
 20
-255.493504692
 10
544.7069023649
 20
-255.2774986155
 10
544.7712553342
 20
-255.2399348393
 10
544.526229362
 20
-255.3809916129
 10
543.9729229006
 20
-255.7000244039
 10
543.1138199798
 20
-256.1956373736
 10
541.9527480603
 20
-256.8655860339
 10
540.4948912045
 20
-257.7068913021
 10
538.7467584663
 20
-258.7158090796
 10
536.7161628177
 20
-259.8877937357
 10
534.4121658312
 20
-261.2176517158
 10
531.845069777
 20
-262.6994122523
 10
529.0263333296
 20
-264.3264855348
 10
525.9685518113
 20
-266.0916132685
 10
522.68536763
 20
-267.9868473763
 10
519.1914607307
 20
-270.0037988482
 10
515.5024185326
 20
-272.1334086488
  0
LWPOLYLINE
  5
CE
330
1F
100
AcDbEntity
  8
0
  6
Continuous
 62
     7
370
    25
100
AcDbPolyline
 90
       86
 70
   128
 43
0.0
 10
508.2024263199
 20
-276.348986581
 10
504.6978335481
 20
-278.3721738497
 10
501.0337814678
 20
-280.4874241088
 10
497.2302964173
 20
-282.6832247919
 10
493.308127817
 20
-284.9475483931
 10
489.2887264372
 20
-287.2680475099
 10
485.194020493
 20
-289.632050281
 10
481.0463820582
 20
-292.0266406022
 10
476.8684624299
 20
-294.4387531806
 10
472.6830801753
 20
-296.8551773324
 10
468.5131078621
 20
-299.2627562157
 10
464.3812968861
 20
-301.6483176312
 10
460.3102353238
 20
-303.9988321892
 10
456.3221398328
 20
-306.3014726276
 10
452.4388003339
 20
-308.5436335807
 10
448.6814377651
 20
-310.7131353819
 10
445.0705539341
 20
-312.798067414
 10
441.6258762002
 20
-314.7870633915
 10
438.3662204972
 20
-316.6692587817
 10
435.3093886
 20
-318.4343622884
 10
432.4720891
 20
-320.0727501538
 10
429.8697846223
 20
-321.575481377
 10
427.5167260699
 20
-322.9343266072
 10
425.4257524267
 20
-324.141871581
 10
423.6082749518
 20
-325.1915262551
 10
422.0742297647
 20
-326.0775521855
 10
420.831983015
 20
-326.7951172925
 10
419.8883282477
 20
-327.340297389
 10
419.2484258177
 20
-327.7101355066
 10
418.9157528399
 20
-327.9025491304
 10
418.8921427022
 20
-327.9165507409
 10
419.1777113084
 20
-327.7520470647
 10
419.7709071278
 20
-327.4099318594
 10
420.6684953896
 20
-326.892070719
 10
421.8655738886
 20
-326.2013162923
 10
423.3555887899
 20
-325.3414018314
 10
425.1304004832
 20
-324.317024853
 10
427.1803402182
 20
-323.1338144478
 10
429.494195616
 20
-321.7982179894
 10
432.0593463297
 20
-320.3175444862
 10
434.8617482391
 20
-318.6998277159
 10
437.8861231116
 20
-316.9539600692
 10
441.1159477363
 20
-315.0894554941
 10
444.5335757545
 20
-313.1165008348
 10
448.1203420392
 20
-311.0458712395
 10
451.8566614768
 20
-308.8888731358
 10
455.7221333462
 20
-306.6573083078
 10
459.6956210029
 20
-304.363306226
 10
463.7554517471
 20
-302.019451994
 10
467.8794378973
 20
-299.6385308504
 10
472.0450717192
 20
-297.2335616285
 10
476.2295767926
 20
-294.817645436
 10
480.4101042571
 20
-292.4039740196
 10
484.5638315944
 20
-290.0057727348
 10
488.668070629
 20
-287.6361165206
 10
492.7004097741
 20
-285.3079451099
 10
496.6388141307
 20
-283.0339809015
 10
500.4617782692
 20
-280.826665079
 10
504.1484184262
 20
-278.6979827098
 10
507.6786094815
 20
-276.6596269973
 10
511.0330666178
 20
-274.7227087888
 10
514.1934638584
 20
-272.8978098023
 10
517.142542069
 20
-271.1948959286
 10
519.8641906167
 20
-269.6232700821
 10
522.343563274
 20
-268.1915052712
 10
524.5671150976
 20
-266.9074233012
 10
526.5226709166
 20
-265.778055228
 10
528.1995833834
 20
-264.8095622521
 10
529.5886829242
 20
-264.0072159492
 10
530.682377838
 20
-263.375413465
 10
531.4747017115
 20
-262.9176014622
 10
531.9613160535
 20
-262.6362624216
 10
532.1395840518
 20
-262.5329937183
 10
532.0085152555
 20
-262.608296207
 10
531.568826161
 20
-262.8617825754
 10
530.8229244069
 20
-263.2920647821
 10
529.77487453
 20
-263.8967859905
 10
528.4304216727
 20
-264.6726676987
 10
526.7968862156
 20
-265.6154367305
 10
524.8831993393
 20
-266.7199750303
 10
522.6998108282
 20
-267.9802390436
 10
520.2586403377
 20
-269.3893486805
 10
517.5730391993
 20
-270.9396093537
 10
514.6576514672
 20
-272.622531367
 10
511.5284218211
 20
-274.4289591734
 10
508.2024263199
 20
-276.348986581
  0
LWPOLYLINE
  5
CF
330
1F
100
AcDbEntity
  8
0
  6
Continuous
 62
     7
370
    25
100
AcDbPolyline
 90
       95
 70
   128
 43
0.0
 10
596.9338809252
 20
-779.088445415
 10
593.2818436601
 20
-776.834317851
 10
589.8987671673
 20
-774.4444062328
 10
586.7997541774
 20
-771.9293878151
 10
583.9986575032
 20
-769.3004895782
 10
581.5079815879
 20
-766.5694557227
 10
579.3388466141
 20
-763.7484843723
 10
577.5009463569
 20
-760.8501728285
 10
576.0024862809
 20
-757.8874696696
 10
574.8501624666
 20
-754.8736017583
 10
574.0491168297
 20
-751.8220301415
 10
573.6029292179
 20
-748.7463907444
 10
573.5135910699
 20
-745.6604122534
 10
573.7815027809
 20
-742.5778811408
 10
574.4054684338
 20
-739.5125625894
 10
575.3826984343
 20
-736.47815031
 10
576.7088332176
 20
-733.4881950698
 10
578.3779432491
 20
-730.5560469063
 10
580.3825790731
 20
-727.6948079863
 10
582.7137884358
 20
-724.9172558118
 10
585.3611518459
 20
-722.2357922774
 10
588.3128543563
 20
-719.6623961484
 10
591.5557099305
 20
-717.2085603338
 10
595.0752333879
 20
-714.8852442691
 10
598.8557065884
 20
-712.7028235446
 10
602.8802441214
 20
-710.6710459002
 10
607.1308729903
 20
-708.7989852252
 10
611.5886088386
 20
-707.0950036362
 10
616.2335432073
 20
-705.5667132701
 10
621.0449260174
 20
-704.2209347508
 10
626.0012742301
 20
-703.0636831223
 10
631.0804541644
 20
-702.1001264111
 10
636.2597697425
 20
-701.3345650961
 10
641.5160955152
 20
-700.7704222249
 10
646.8259583224
 20
-700.4102145207
 10
652.1656373906
 20
-700.2555523821
 10
657.5112881405
 20
-700.3071261971
 10
662.8390291139
 20
-700.5647048227
 10
668.1250789516
 20
-701.0271386257
 10
673.3458169792
 20
-701.692361004
 10
678.4779254527
 20
-702.5574035929
 10
683.4984922916
 20
-703.6184008275
 10
688.38508747
 20
-704.8706157937
 10
693.1158894571
 20
-706.3084523944
 10
697.6697681937
 20
-707.9254910848
 10
702.026379923
 20
-709.7145132035
 10
706.1662768378
 20
-711.6675216918
 10
710.0709633862
 20
-713.775797929
 10
713.7230006513
 20
-716.029925493
 10
717.1060771441
 20
-718.4198371112
 10
720.2050901341
 20
-720.9348555288
 10
723.0061868083
 20
-723.5637537658
 10
725.4968627236
 20
-726.2947876212
 10
727.6659976974
 20
-729.1157589717
 10
729.5038979546
 20
-732.0140705155
 10
731.0023580306
 20
-734.9767736743
 10
732.1546818448
 20
-737.9906415857
 10
732.9557274818
 20
-741.0422132025
 10
733.4019150935
 20
-744.1178525996
 10
733.4912532415
 20
-747.2038310906
 10
733.2233415306
 20
-750.2863622032
 10
732.5993758776
 20
-753.3516807546
 10
731.6221458772
 20
-756.3860930339
 10
730.2960110938
 20
-759.3760482741
 10
728.6269010624
 20
-762.3081964377
 10
726.6222652383
 20
-765.1694353577
 10
724.2910558756
 20
-767.9469875321
 10
721.6436924656
 20
-770.6284510666
 10
718.6919899551
 20
-773.2018471955
 10
715.449134381
 20
-775.6556830102
 10
711.9296109235
 20
-777.9789990748
 10
708.149137723
 20
-780.1614197993
 10
704.12460019
 20
-782.1931974437
 10
699.8739713211
 20
-784.0652581187
 10
695.4162354728
 20
-785.7692397078
 10
690.7713011042
 20
-787.2975300738
 10
685.959918294
 20
-788.6433085932
 10
681.0035700813
 20
-789.8005602216
 10
675.924390147
 20
-790.7641169329
 10
670.745074569
 20
-791.5296782479
 10
665.4887487962
 20
-792.093821119
 10
660.1788859891
 20
-792.4540288232
 10
654.8392069208
 20
-792.6086909619
 10
649.493556171
 20
-792.5571171468
 10
644.1658151976
 20
-792.2995385213
 10
638.8797653599
 20
-791.8371047182
 10
633.6590273323
 20
-791.1718823399
 10
628.5269188588
 20
-790.306839751
 10
623.5063520198
 20
-789.2458425165
 10
618.6197568414
 20
-787.9936275503
 10
613.8889548544
 20
-786.5557909496
 10
609.3350761177
 20
-784.9387522592
 10
604.9784643885
 20
-783.1497301405
 10
600.8385674737
 20
-781.1967216522
 10
596.9338809252
 20
-779.088445415
  0
LWPOLYLINE
  5
D0
330
1F
100
AcDbEntity
  8
0
  6
Continuous
 62
     7
370
    25
100
AcDbPolyline
 90
       47
 70
   128
 43
0.0
 10
574.2980993372
 20
-306.3515535607
 10
574.4054684338
 20
-305.9293766825
 10
575.3826984343
 20
-302.8949644031
 10
576.7088332176
 20
-299.9050091629
 10
578.3779432491
 20
-296.9728609994
 10
580.3825790731
 20
-294.1116220794
 10
582.7137884358
 20
-291.3340699049
 10
585.3611518459
 20
-288.6526063705
 10
588.3128543563
 20
-286.0792102415
 10
591.5557099305
 20
-283.6253744269
 10
595.0752333879
 20
-281.3020583622
 10
598.8557065884
 20
-279.1196376377
 10
602.8802441214
 20
-277.0878599933
 10
607.1308729903
 20
-275.2157993183
 10
611.5886088386
 20
-273.5118177293
 10
616.2335432073
 20
-271.9835273632
 10
621.0449260174
 20
-270.6377488439
 10
626.0012742301
 20
-269.4804972154
 10
631.0804541644
 20
-268.5169405042
 10
636.2597697425
 20
-267.7513791892
 10
641.5160955152
 20
-267.187236318
 10
646.8259583224
 20
-266.8270286138
 10
652.1656373906
 20
-266.6723664752
 10
657.5112881405
 20
-266.7239402902
 10
662.8390291139
 20
-266.9815189158
 10
668.1250789516
 20
-267.4439527188
 10
673.3458169792
 20
-268.1091750971
 10
678.4779254527
 20
-268.974217686
 10
683.4984922916
 20
-270.0352149206
 10
688.38508747
 20
-271.2874298868
 10
693.1158894571
 20
-272.7252664875
 10
697.6697681937
 20
-274.3423051779
 10
702.026379923
 20
-276.1313272966
 10
706.1662768378
 20
-278.0843357849
 10
710.0709633862
 20
-280.1926120221
 10
713.7230006513
 20
-282.4467395861
 10
717.1060771441
 20
-284.8366512043
 10
720.2050901341
 20
-287.3516696219
 10
723.0061868083
 20
-289.9805678589
 10
725.4968627236
 20
-292.7116017143
 10
727.6659976974
 20
-295.5325730648
 10
729.5038979546
 20
-298.4308846086
 10
731.0023580306
 20
-301.3935877674
 10
732.1546818448
 20
-304.4074556788
 10
732.9557274818
 20
-307.4590272956
 10
733.4019150935
 20
-310.5346666927
 10
733.5024195222
 20
-312.8489357651
  0
LWPOLYLINE
  5
D1
330
1F
100
AcDbEntity
  8
0
  6
Continuous
 62
     7
370
    25
100
AcDbPolyline
 90
       86
 70
   128
 43
0.0
 10
607.2576408325
 20
-773.128665678
 10
603.9686291909
 20
-771.0841570073
 10
600.9501614626
 20
-768.9050032707
 10
598.2187131141
 20
-766.603112142
 10
595.7892014956
 20
-764.1910550713
 10
593.674903523
 20
-761.6820045569
 10
591.8873608472
 20
-759.089664194
 10
590.4363410005
 20
-756.4281915005
 10
589.3297623219
 20
-753.712124164
 10
588.5736768356
 20
-750.9562971645
 10
588.1722070301
 20
-748.1757606583
 10
588.1275445416
 20
-745.3857001419
 10
588.4399422511
 20
-742.6013558565
 10
589.107687943
 20
-739.8379315467
 10
590.1271359147
 20
-737.1105245097
 10
591.492716197
 20
-734.4340290322
 10
593.1969727488
 20
-731.8230626374
 10
595.230595068
 20
-729.2918839682
 10
597.5824794355
 20
-726.8543209354
 10
600.239777648
 20
-724.5236847991
 10
603.1879790066
 20
-722.3127045898
 10
606.4109798754
 20
-720.233456539
 10
609.891181558
 20
-718.2972984528
 10
613.6095680054
 20
-716.5148005205
 10
617.5458360436
 20
-714.8957005503
 10
621.678489298
 20
-713.4488436643
 10
625.9849515459
 20
-712.1821290275
 10
630.4417055044
 20
-711.1024753475
 10
635.0244087341
 20
-710.2157813365
 10
639.7080325926
 20
-709.5268850336
 10
644.466996577
 20
-709.039556201
 10
649.2753092527
 20
-708.7564514643
 10
654.1067078646
 20
-708.679115833
 10
658.9348058515
 20
-708.8079766177
 10
663.7332377253
 20
-709.1423267028
 10
668.4757881464
 20
-709.6803412741
 10
673.1365605105
 20
-710.4190808598
 10
677.6900994382
 20
-711.3545103391
 10
682.1115317033
 20
-712.4815225131
 10
686.3767124302
 20
-713.7939616746
 10
690.4623436312
 20
-715.2846585845
 10
694.3461138183
 20
-716.9454715293
 10
698.0068109436
 20
-718.7673302315
 10
701.4244389618
 20
-720.7402848908
 10
704.5803327459
 20
-722.853560359
 10
707.4572568689
 20
-725.0956131646
 10
710.0394994467
 20
-727.454197853
 10
712.3129570902
 20
-729.9164342764
 10
714.2652109671
 20
-732.4688727929
 10
715.8855979245
 20
-735.0975748624
 10
717.1652710757
 20
-737.788181477
 10
718.0972406293
 20
-740.525997559
 10
718.676414719
 20
-743.2960733171
 10
718.8996323312
 20
-746.0832749577
 10
718.7656685732
 20
-748.8723820085
 10
718.275263649
 20
-751.648161832
 10
717.4310938835
 20
-754.3954532625
 10
716.2377611856
 20
-757.099251764
 10
714.7017956828
 20
-759.7447900267
 10
712.8315780124
 20
-762.3176193227
 10
710.6373261511
 20
-764.803687061
 10
708.1310249503
 20
-767.1894170031
 10
705.3263576477
 20
-769.461776173
 10
702.2386461047
 20
-771.6083549779
 10
698.8847585271
 20
-773.6174326448
 10
695.2830050042
 20
-775.4780314424
 10
691.4530599646
 20
-777.1799918595
 10
687.4158423217
 20
-778.7140174649
 10
683.193401792
 20
-780.0717314105
 10
678.8087966527
 20
-781.2457165864
 10
674.2859801434
 20
-782.229562952
 10
669.6496516344
 20
-783.0178956688
 10
664.925132162
 20
-783.606410456
 10
660.1382221828
 20
-783.9918918387
 10
655.3150738165
 20
-784.1722351977
 10
650.4820235749
 20
-784.1464520919
 10
645.6654711904
 20
-783.9146885064
 10
640.8917215647
 20
-783.4782096459
 10
636.1868451578
 20
-782.8393953723
 10
631.5765396936
 20
-782.0017394448
 10
627.0859879139
 20
-780.9698130232
 10
622.7397140163
 20
-779.7492547839
 10
618.5614558961
 20
-778.3467275802
 10
614.574031462
 20
-776.7698960125
 10
610.7992174638
 20
-775.0273716836
 10
607.2576408325
 20
-773.128665678
  0
ENDSEC
  0
SECTION
  2
OBJECTS
  0
DICTIONARY
  5
C
330
0
100
AcDbDictionary
281
     1
  3
ACAD_GROUP
350
D
  3
ACAD_LAYOUT
350
1A
  3
ACAD_MLINESTYLE
350
17
  3
ACAD_PLOTSETTINGS
350
19
  3
ACAD_PLOTSTYLENAME
350
E
  3
ACAD_SCALELIST
350
47
  0
DICTIONARY
  5
D
102
{ACAD_REACTORS
330
C
102
}
330
C
100
AcDbDictionary
281
     1
  0
DICTIONARY
  5
1A
102
{ACAD_REACTORS
330
C
102
}
330
C
100
AcDbDictionary
281
     1
  3
Layout1
350
1E
  3
Layout2
350
26
  3
Model
350
22
  0
DICTIONARY
  5
17
102
{ACAD_REACTORS
330
C
102
}
330
C
100
AcDbDictionary
281
     1
  3
Standard
350
18
  0
DICTIONARY
  5
19
102
{ACAD_REACTORS
330
C
102
}
330
C
100
AcDbDictionary
281
     1
  0
ACDBDICTIONARYWDFLT
  5
E
102
{ACAD_REACTORS
330
C
102
}
330
C
100
AcDbDictionary
281
     1
  3
Normal
350
F
100
AcDbDictionaryWithDefault
340
F
  0
DICTIONARY
  5
47
102
{ACAD_REACTORS
330
C
102
}
330
C
100
AcDbDictionary
281
     1
  3
A0
350
48
  3
A1
350
49
  3
A2
350
4A
  3
A3
350
4B
  3
A4
350
4C
  3
A5
350
4D
  3
A6
350
4E
  3
A7
350
4F
  3
A8
350
50
  3
A9
350
51
  3
B0
350
52
  3
B1
350
53
  3
B2
350
54
  3
B3
350
55
  3
B4
350
56
  3
B5
350
57
  3
B6
350
58
  3
B7
350
59
  3
B8
350
5A
  3
B9
350
5B
  3
C0
350
5C
  3
C1
350
5D
  3
C2
350
5E
  3
C3
350
5F
  3
C4
350
60
  3
C5
350
61
  3
C6
350
62
  3
C7
350
63
  3
C8
350
64
  3
C9
350
65
  3
D0
350
66
  3
D1
350
67
  3
D2
350
68
  0
LAYOUT
  5
1E
102
{ACAD_REACTORS
330
1A
102
}
330
1A
100
AcDbPlotSettings
  1

  2
none_device
  4

  6

 40
0.0
 41
0.0
 42
0.0
 43
0.0
 44
0.0
 45
0.0
 46
0.0
 47
0.0
 48
0.0
 49
0.0
140
0.0
141
0.0
142
1.0
143
1.0
 70
   688
 72
     1
 73
     0
 74
     5
  7

 75
    16
147
1.0
148
0.0
149
0.0
100
AcDbLayout
  1
Layout1
 70
     1
 71
     1
 10
0.0
 20
0.0
 11
420.0
 21
297.0
 12
0.0
 22
0.0
 32
0.0
 14
1.0000000000E+20
 24
1.0000000000E+20
 34
1.0000000000E+20
 15
-1.0000000000E+20
 25
-1.0000000000E+20
 35
-1.0000000000E+20
146
0.0
 13
0.0
 23
0.0
 33
0.0
 16
1.0
 26
0.0
 36
0.0
 17
0.0
 27
1.0
 37
0.0
 76
     0
330
1B
  0
LAYOUT
  5
26
102
{ACAD_REACTORS
330
1A
102
}
330
1A
100
AcDbPlotSettings
  1

  2
none_device
  4

  6

 40
0.0
 41
0.0
 42
0.0
 43
0.0
 44
0.0
 45
0.0
 46
0.0
 47
0.0
 48
0.0
 49
0.0
140
0.0
141
0.0
142
1.0
143
1.0
 70
   688
 72
     1
 73
     0
 74
     5
  7

 75
    16
147
1.0
148
0.0
149
0.0
100
AcDbLayout
  1
Layout2
 70
     1
 71
     2
 10
0.0
 20
0.0
 11
0.0
 21
0.0
 12
0.0
 22
0.0
 32
0.0
 14
0.0
 24
0.0
 34
0.0
 15
0.0
 25
0.0
 35
0.0
146
0.0
 13
0.0
 23
0.0
 33
0.0
 16
1.0
 26
0.0
 36
0.0
 17
0.0
 27
1.0
 37
0.0
 76
     0
330
23
  0
LAYOUT
  5
22
102
{ACAD_REACTORS
330
1A
102
}
330
1A
100
AcDbPlotSettings
  1

  2
none_device
  4
Letter_(8.50_x_11.00_Inches)
  6

 40
6.35
 41
6.35
 42
6.35000508
 43
6.35000508
 44
215.9
 45
279.4
 46
0.0
 47
0.0
 48
0.0
 49
0.0
140
0.0
141
0.0
142
1.0
143
1.0
 70
  1712
 72
     1
 73
     0
 74
     0
  7

 75
     0
147
1.0
148
0.0
149
0.0
100
AcDbLayout
  1
Model
 70
     1
 71
     0
 10
0.0
 20
0.0
 11
279.4
 21
215.9
 12
0.0
 22
0.0
 32
0.0
 14
0.0
 24
0.0
 34
0.0
 15
279.4
 25
215.9
 35
0.0
146
0.0
 13
0.0
 23
0.0
 33
0.0
 16
1.0
 26
0.0
 36
0.0
 17
0.0
 27
1.0
 37
0.0
 76
     0
330
1F
331
29
  0
MLINESTYLE
  5
18
102
{ACAD_REACTORS
330
17
102
}
330
17
100
AcDbMlineStyle
  2
Standard
 70
     0
  3

 62
   256
 51
90.0
 52
90.0
 71
     2
 49
0.5
 62
   256
  6
BYLAYER
 49
-0.5
 62
   256
  6
BYLAYER
  0
ACDBPLACEHOLDER
  5
F
102
{ACAD_REACTORS
330
E
102
}
330
E
  0
SCALE
  5
48
102
{ACAD_REACTORS
330
47
102
}
330
47
100
AcDbScale
 70
     0
300
1:1
140
1.0
141
1.0
290
     1
  0
SCALE
  5
49
102
{ACAD_REACTORS
330
47
102
}
330
47
100
AcDbScale
 70
     0
300
1:2
140
1.0
141
2.0
290
     0
  0
SCALE
  5
4A
102
{ACAD_REACTORS
330
47
102
}
330
47
100
AcDbScale
 70
     0
300
1:4
140
1.0
141
4.0
290
     0
  0
SCALE
  5
4B
102
{ACAD_REACTORS
330
47
102
}
330
47
100
AcDbScale
 70
     0
300
1:5
140
1.0
141
5.0
290
     0
  0
SCALE
  5
4C
102
{ACAD_REACTORS
330
47
102
}
330
47
100
AcDbScale
 70
     0
300
1:8
140
1.0
141
8.0
290
     0
  0
SCALE
  5
4D
102
{ACAD_REACTORS
330
47
102
}
330
47
100
AcDbScale
 70
     0
300
1:10
140
1.0
141
10.0
290
     0
  0
SCALE
  5
4E
102
{ACAD_REACTORS
330
47
102
}
330
47
100
AcDbScale
 70
     0
300
1:16
140
1.0
141
16.0
290
     0
  0
SCALE
  5
4F
102
{ACAD_REACTORS
330
47
102
}
330
47
100
AcDbScale
 70
     0
300
1:20
140
1.0
141
20.0
290
     0
  0
SCALE
  5
50
102
{ACAD_REACTORS
330
47
102
}
330
47
100
AcDbScale
 70
     0
300
1:30
140
1.0
141
30.0
290
     0
  0
SCALE
  5
51
102
{ACAD_REACTORS
330
47
102
}
330
47
100
AcDbScale
 70
     0
300
1:40
140
1.0
141
40.0
290
     0
  0
SCALE
  5
52
102
{ACAD_REACTORS
330
47
102
}
330
47
100
AcDbScale
 70
     0
300
1:50
140
1.0
141
50.0
290
     0
  0
SCALE
  5
53
102
{ACAD_REACTORS
330
47
102
}
330
47
100
AcDbScale
 70
     0
300
1:100
140
1.0
141
100.0
290
     0
  0
SCALE
  5
54
102
{ACAD_REACTORS
330
47
102
}
330
47
100
AcDbScale
 70
     0
300
2:1
140
2.0
141
1.0
290
     0
  0
SCALE
  5
55
102
{ACAD_REACTORS
330
47
102
}
330
47
100
AcDbScale
 70
     0
300
4:1
140
4.0
141
1.0
290
     0
  0
SCALE
  5
56
102
{ACAD_REACTORS
330
47
102
}
330
47
100
AcDbScale
 70
     0
300
8:1
140
8.0
141
1.0
290
     0
  0
SCALE
  5
57
102
{ACAD_REACTORS
330
47
102
}
330
47
100
AcDbScale
 70
     0
300
10:1
140
10.0
141
1.0
290
     0
  0
SCALE
  5
58
102
{ACAD_REACTORS
330
47
102
}
330
47
100
AcDbScale
 70
     0
300
100:1
140
100.0
141
1.0
290
     0
  0
SCALE
  5
59
102
{ACAD_REACTORS
330
47
102
}
330
47
100
AcDbScale
 70
     0
300
1/128" = 1'-0"
140
0.0078125
141
12.0
290
     0
  0
SCALE
  5
5A
102
{ACAD_REACTORS
330
47
102
}
330
47
100
AcDbScale
 70
     0
300
1/64" = 1'-0"
140
0.015625
141
12.0
290
     0
  0
SCALE
  5
5B
102
{ACAD_REACTORS
330
47
102
}
330
47
100
AcDbScale
 70
     0
300
1/32" = 1'-0"
140
0.03125
141
12.0
290
     0
  0
SCALE
  5
5C
102
{ACAD_REACTORS
330
47
102
}
330
47
100
AcDbScale
 70
     0
300
1/16" = 1'-0"
140
0.0625
141
12.0
290
     0
  0
SCALE
  5
5D
102
{ACAD_REACTORS
330
47
102
}
330
47
100
AcDbScale
 70
     0
300
3/32" = 1'-0"
140
0.09375
141
12.0
290
     0
  0
SCALE
  5
5E
102
{ACAD_REACTORS
330
47
102
}
330
47
100
AcDbScale
 70
     0
300
1/8" = 1'-0"
140
0.125
141
12.0
290
     0
  0
SCALE
  5
5F
102
{ACAD_REACTORS
330
47
102
}
330
47
100
AcDbScale
 70
     0
300
3/16" = 1'-0"
140
0.1875
141
12.0
290
     0
  0
SCALE
  5
60
102
{ACAD_REACTORS
330
47
102
}
330
47
100
AcDbScale
 70
     0
300
1/4" = 1'-0"
140
0.25
141
12.0
290
     0
  0
SCALE
  5
61
102
{ACAD_REACTORS
330
47
102
}
330
47
100
AcDbScale
 70
     0
300
3/8" = 1'-0"
140
0.375
141
12.0
290
     0
  0
SCALE
  5
62
102
{ACAD_REACTORS
330
47
102
}
330
47
100
AcDbScale
 70
     0
300
1/2" = 1'-0"
140
0.5
141
12.0
290
     0
  0
SCALE
  5
63
102
{ACAD_REACTORS
330
47
102
}
330
47
100
AcDbScale
 70
     0
300
3/4" = 1'-0"
140
0.75
141
12.0
290
     0
  0
SCALE
  5
64
102
{ACAD_REACTORS
330
47
102
}
330
47
100
AcDbScale
 70
     0
300
1" = 1'-0"
140
1.0
141
12.0
290
     0
  0
SCALE
  5
65
102
{ACAD_REACTORS
330
47
102
}
330
47
100
AcDbScale
 70
     0
300
1-1/2" = 1'-0"
140
1.5
141
12.0
290
     0
  0
SCALE
  5
66
102
{ACAD_REACTORS
330
47
102
}
330
47
100
AcDbScale
 70
     0
300
3" = 1'-0"
140
3.0
141
12.0
290
     0
  0
SCALE
  5
67
102
{ACAD_REACTORS
330
47
102
}
330
47
100
AcDbScale
 70
     0
300
6" = 1'-0"
140
6.0
141
12.0
290
     0
  0
SCALE
  5
68
102
{ACAD_REACTORS
330
47
102
}
330
47
100
AcDbScale
 70
     0
300
1'-0" = 1'-0"
140
12.0
141
12.0
290
     0
  0
ENDSEC
  0
EOF
